Song name
# A B C D E F G H I J K L M N O P Q R S T U V W X Y Z

Nightwish - The Crow The Owl And The Dove tab

	New song of Nightwish !

The Crow, The owl and the dove ! ( intro )


Capo 3

e|---------------------------------------------------------------------|
b|------1-0------0-1------1-0------0-----------------------------------|
g|-----------------------------------2------2-0------------------------|
d|----2--------2--------2--------2-----------------2-0h2p0-------------|
a|--0-----------------0-------------------3----------------3-----------|
E|-----------3-----------------0--------1--------0---------------------|

 
e|-----------------------|
b|-----------------------|
g|-----------------------|
d|------2-0--------------|        ( Come back at the beginning )
a|----3--------2-0h2p0---|
E|--1--------3---------3-|


| h Hammer-On
| p Pull-Off	
Tap to rate this tab
# A B C D E F G H I J K L M N O P Q R S T U V W X Y Z