Song name
# A B C D E F G H I J K L M N O P Q R S T U V W X Y Z

Nightwish - Storytime tab

   Hola a todos, Ústa es mi manera de ver este gran tema, espero os guste:

(piano)
1.-------------------------------------------------|
2.-------------------------------------------------|
3.-----------------------------------13------------|
4.-15-15-16-15---15-18-15---15-16-15----15-13-15---|
5.-------------------------------------------------|
6.-------------------------------------------------|

1.-------------------------------------------------|
2.-------------------------------------------------|
3.--------------------------------13---------------|
4.-15-16-15---15-18-15---15-16-15----15-13-15------|
5.-------------------------------------------------|
6.-------------------------------------------------|

1.-----------------------------------------------------|
2.-----------------------------------------------------|
3.-5-5---5-5---8-8-------5-5-6-5---5-5-8-5---5-6-----5-|
4.-3-3---3-3---6-6-8-8---3-3-4-3---3-3-6-3---3-4-6-8-3-|
5.-----------------6-6---------------------------4-6---|
6.-----------------------------------------------------|

1.-----------------------------------------------------|
2.-----------------------------------------------------|
3.-5-6-5---5-5-9-5---6---5---5-6-5---5-5-8-5---5-6-----|
4.-3-4-3---3-3-7-3---4-8-3---3-4-3---3-3-6-3---3-4-6-8-|
5.---------------------6---------------------------4-6-|
6.-----------------------------------------------------|

1.-------------------------|
2.-------------------------|
3.-5---5-6-5---5---6-6-----|
4.-3---3-4-3---3---4-4-6-6-|
5.---------------------4-4-|
6.-------------------------|

It was the night before,
When all through the world,
No words, no dreams
Then one day,
A writer by a fire
Imagined all of Gaia
Took a journey into a childless heart...

A painter on the shore
Imagined all the world
Within the snowflake on his palm
A dream of poetry,
I'll tell is over
Cutting in,
Falling back in to the stars

1.-----------------------------------------|
2.-----------------------------------------|
3.-8-8-------5-5-6-5---5-5-8-5---5-6-----5-|
4.-6-6-8-8---3-3-4-3---3-3-6-3---3-4-6-8-3-|
5------6-6---------------------------4-6---|
6.-----------------------------------------|

1.-----------------------------------------------------|
2.-----------------------------------------------------|
3.-5-6-5---5-5-9-5---6---5---5-6-5---5-5-8-5---5-6-----|
4.-3-4-3---3-3-7-3---4-8-3---3-4-3---3-3-6-3---3-4-6-8-|
5.---------------------6---------------------------4-6-|
6.-----------------------------------------------------|


1.-------------------------|
2.-------------------------|
3.-5---5-6-5---5---6-6-----|
4.-3---3-4-3---3---4-4-6-6-|
5.---------------------4-4-|
6.-------------------------|

(estribillo)

I am the voice of never, never land,
The innocence of dreams from every man,
I am the empty grave of Peter Pan,
A soaring kite against the blue, blue sky,
Every chimney, every moonlit sight
I am the story that will read you real,
Every memory that you hold dear

1.----------------------------------|
2.----------------------------------|
3.-5---------------5--------------5-|
4.-3--8---3---6----3--8---3---6---3-|
5.----6---1---4-------6---1---4-----|
6.----------------------------------|

I am the journey,
I am the destination,
I am the whole mad tale
That grieves you
Away to taste the night,
Free and loose we fly!
Follow the madness,
How do you know what's real?
Imaginarium, a dream emporium!
Caress the tales
And they will read you real
A storyteller's game,
Inside he flicks the gate
The calling heart
Is a limitless chest of tales


1.--------------------------------|
2.--------------------------------|
3.--5-5-6-5---5-5-8-5---5-6-----5-|
4.--3-3-4-3---3-3-6-3---3-4-6-8-3-|
5.--------------------------4-6---|
6.--------------------------------|

1.-----------------------------------------------------|
2.-----------------------------------------------------|
3.-5-6-5---5-5-9-5---6---5---5-6-5---5-5-8-5---5-6-----|
4.-3-4-3---3-3-7-3---4-8-3---3-4-3---3-3-6-3---3-4-6-8-|
5.---------------------6---------------------------4-6-|
6.-----------------------------------------------------|


1.-------------------------|
2.-------------------------|
3.-5---5-6-5---5---6-6-----|
4.-3---3-4-3---3---4-4-6-6-|
5.---------------------4-4-|
6.-------------------------|


1.-----------------------------------------------------|
2.-----------------------------------------------------|
3.--5-5-6-5---5-5-8-5---5-6-----5----------------------|
4.--3-3-4-3---3-3-6-3---3-4-6-8-3----------------------|
5.--------------------------4-6------------------------|
6.-----------------------------------------------------|

1.-----------------------------------------------------|
2.-----------------------------------------------------|
3.-5-6-5---5-5-9-5---6---5---5-6-5---5-5-8-5---5-6-----|
4.-3-4-3---3-3-7-3---4-8-3---3-4-3---3-3-6-3---3-4-6-8-|
5.---------------------6---------------------------4-6-|
6.-----------------------------------------------------|


1.-------------------------|
2.-------------------------|
3.-5---5-6-5---5---6-6-----|
4.-3---3-4-3---3---4-4-6-6-|
5.---------------------4-4-|
6.-------------------------|

(estribillo)

I am the voice of never, never land,
The innocence of dreams from every man,
I am the empty grave of Peter Pan,
A soaring kite against the blue, blue sky,
Every chimney, every moonlit sight
I am the story that will read you real,
Every memory that you hold dear

1.----------------------------------|
2.----------------------------------|
3.-5---------------5--------------5-|
4.-3--8---3---6----3--8---3---6---3-|
5.----6---1---4-------6---1---4-----|
6.----------------------------------|


1.---------------|
2.---------------|
3.-------------3-|
4.-3---5---6---1-|
5.-1---3---4-----|
6.---------------|


I am the voice of never, never land,
The innocence of dreams from every man,
Searching heavens for another eartha childless heart...


1.----------------------------------|
2.----------------------------------|
3.-5---------------5--------------5-|
4.-3--8---3---6----3--8---3---6---3-|
5.----6---1---4-------6---1---4-----|
6.----------------------------------|


(orquesta)

1.--------------------------------------------|
2.--------------------------------------------|
3.--------------------------------------------|
4.-15-14-15---17-15-17---14-12-14---15-14-15--|
5.--------------------------------------------|
6.--------------------------------------------|

1.---------------------------------------------------|
2.---------------------------------------------------|
3.---------------------------------------------------|
4.----------14--------15-14-15---17-15-17---14-12-14-|
5.-17-15-17----15-17---------------------------------|
6.---------------------------------------------------|

1.---------------------|
2.---------------------|
3.-----------/15-14----|
4.-15-14-15---------17-|
5.---------------------|
6.---------------------|

(guitarra)

1.---------------------------------------------------|
2.---------------------------------------------------|
3.---------------------------------------------------|
4.-3-2-3---5-3-5---2-0-2---3-2-3--------2------3-2-3-|
5.--------------------------------5-3-5---3-5--------|
6.---------------------------------------------------|

1.-------------------------------------------------------|
2.-------------------------------------------------------|
3.-----------------------2-3-2-3-2-3-2-3-2-3-2-3-2-3-2-3-|
4.-5-3-5---2-0-2---3-2-3---------------------------------|
5.-------------------------------------------------------|
6.-------------------------------------------------------|

1.---------------------------------------------------|
2.---------------------------------------------------|
3.-3-5-3-5-3-5-3-5-3-5-3-5-3-5-3-5---5-6-5-6-5-6-5-6-|
4.---------------------------------------------------|
5.---------------------------------------------------|
6.---------------------------------------------------|

1.---------------------------------------------------|
2.---------------------------------------------------|
3.-5-6-5-6-5-6-5-6---6-8-6-8-6-8-6-8-6-8-6-8-6-8-6-8-|
4.---------------------------------------------------|
5.---------------------------------------------------|
6.---------------------------------------------------|

1.-----------|(H)
2.---------6-|
3.-8-7-3-5---|
4.-6-5-1-3---|
5.-----------|
6.-----------|

I am the voice of never, never land,
The innocence of dreams from every man,
I am the empty grave of Peter Pan,
A soaring kite against the blue, blue sky,
Every chimney, every moonlit sight
I am the story that will read you real,
Every memory that you hold dear

1.----------------------------------|
2.----------------------------------|
3.-5---------------5--------------5-|
4.-3--8---3---6----3--8---3---6---3-|
5.----6---1---4-------6---1---4-----|
6.----------------------------------|

1.----------------------------------|
2.----------------------------------|
3.-5---------------5--------------5-|
4.-3--8---3---6----3--8---3---6---3-|
5.----6---1---4-------6---1---4-----|
6.----------------------------------|





1.-------------------|
2.-------------------|
3.-------------3---5-|
4.-3---5---6---1---3-|
5.-1---3---4---------|
6.-------------------|
Tap to rate this tab
# A B C D E F G H I J K L M N O P Q R S T U V W X Y Z