Song name
# A B C D E F G H I J K L M N O P Q R S T U V W X Y Z

Nightwish - The Crow The Owl And The Dove tab

-------------------------------------------------------------------------------
The Crow, The Owl And The Dove  - Nightwish
-------------------------------------------------------------------------------
Tabbed by: DreamsOfDemi

Tuning: Standard E (E A D G B e)


e|--------------------------------------------------|
B|--------4-3------3-4-----4-3-------3-1------------|
G|--------0-0------0-0-----0-0-------0-0------------|
D|-----1---------0-------1--------------------------|
A|---3---------1-------3-----------1----------------|
E|-------------------------------3------------------|

e|--------------------------------------------------|
B|--------------------------------------------------|
G|------5-3-----------------------------------------|
D|--------------5-5p3------------5-3----------------|
A|-----3--------------6--------3------1-5-5p3-------|
E|---4--------3--------------4----------------6-----|


e|--------------------------------------------------|
B|--------4-3------3-4-----4-3-------3-1------------|
G|--------0-0------0-0-----0-0-------0-0------------|
D|-----1---------0-------1--------------------------|
A|---3---------1-------3-----------1----------------|
E|-------------------------------3------------------|

e|--------------------------------------------------|
B|--------------------------------------------------|
G|------5-3-----------------------------------------|
D|--------------5-5p3------------5-3----------------|
A|-----3---------------6-------3-------1-5-5p3------|
E|---4--------3--------------4----------------6-----|


e|--------------------------------------------------|
B|--------4-3-------3-4-----4-3-------3-1-----------|
G|--------0-0-------0-0-----0-0-------0-0-----------|
D|-----1----------0-------1-------------------------|
A|---3----------1-------3----------1----------------|
E|-------------------------------3------------------|

e|----------------------------------------3-3p1-----|
B|---------------------------------------------4----|
G|------5-3--------------------------------------5--|
D|--------------5-5p3------------5-3----------------|
A|-----3---------------6-------3-------1h3----------|
E|---4--------3--------------4----------------------|

************************************
| h   hammer-on
| p   pull-off
************************************

Thank you!
Tap to rate this tab
# A B C D E F G H I J K L M N O P Q R S T U V W X Y Z