Song name
# A B C D E F G H I J K L M N O P Q R S T U V W X Y Z

Nightwish - Rest Calm tab

Artist: Nightwish
Song: Rest Calm
Tuning: E standard ( E A D G B E ) 
Tabbed by Lorcan Ward

Cover Video:
http://www.youtube.com/watch?v=PrLEmeCbGgQ

|----------------------------------------------------------------------|
|--Pre bend(18)r17---13\10---------------------------------------------|
|-----------------------------12----10----9---10---10/12~~-------------|
|----------------------------------------------------------------------|
|----------------------------------------------------------------------|
|----------------------------------------------------------------------|

|----------------------------------------------------------------------|
|----------------------------------------------------------------------|
|--10--------------------------------12--12/14--14~~---(14)\12---------|
|--------14----12~~~~~~~~-\---\---------------------------------12-----|
|----------------------------------------------------------------------|
|----------------------------------------------------------------------|

|----------------------------------------------------------------------|
|-----------------13--10-----------------------------------------------|
|---------10h12-----------13--12--10--13--12--10------12--10-----------|
|--10h12------------------------------------------12----------12--10---|
|----------------------------------------------------------------------|
|----------------------------------------------------------------------|

|----------------------------------------------------------------------|
|-----------------8p7p6---------6--------------------------------------|
|--10--------------------7p6p5-----7p6p5-------7p6p5-------7p5---------|
|------12--10-----------------------------7p5---------7p5-------7p6p5--|
|----------------------------------------------------------------------|
|----------------------------------------------------------------------|

|--------------------------------------------------------PH------------|
|--------------------------------13b15--Re Pick 8 times-(15)r13-\--\---|
|--7p5---------------7~~~~~~~~~----------------------------------------|
|-------7p6p5----------------------------------------------------------|
|--------------8p5-----------------------------------------------------|
|----------------------------------------------------------------------|
Tap to rate this tab
# A B C D E F G H I J K L M N O P Q R S T U V W X Y Z