Guitaretab - guitar tabs
Song name
# A B C D E F G H I J K L M N O P Q R S T U V W X Y Z

Nightwish - Walking In The Air tab

"Walking In The Air" from Oceaborn

Tuning: EADGBE

e:--------------|
B:--------------|
G:-7------------|
D:-7------------|
A:-5------------|
E:--------------|

E:------10-10--------------------10-10-----------------------------------|
B:---10------13-13-10~-------10-------13-13-10~---10/6/8~---10p8---------|
G:-----------------------------------------------------------------------|
D:-----------------------------------------------------------------------|
A:-----------------------------------------------------------------------|
E:-----------------------------------------------------------------------|



E:---------------------------------------------------|
B:-----10p11-10--------------------------------------|
G:---12---------12-----9p10-9------------------------|
D:------------------12--------1210p12-12p10p7~------|
A:---------------------------------------------------|
E:---------------------------------------------------|


E:------10----12-13-12-10---8-10p8---------10---12-13-12-13-15~-/17-15---|
B:---10----10----------------------10~---10--10--------------------------|
G:-----------------------------------------------------------------------|
D:-----------------------------------------------------------------------|
A:-----------------------------------------------------------------------|
E:-----------------------------------------------------------------------|


[ Tab from: http://www.guitaretab.com/n/nightwish/35137.html ]
E:--15-17-18~---17-15---10-12-13~---12-10--|--8-10p8---------------------|
B:-----------------------------------------|---------10~-----------------|
G:-----------------------------------------|-----------------------------|
D:-----------------------------------------|-----------------------------|
A:-----------------------------------------|-----------------------------|
E:-----------------------------------------|-----------------------------|


e:---------------------------------------------------------------|
B:---------------------------------------------------------------|
G:-7----5--7-5------3--5--7--------------------------------------|
D:-7----5--7-5--5---3--5--7--------------------------------------|
A:-5----3--5-3--5---1--3--5--------------------------------------|
E:--------------3------------------------------------------------|


e:-------------------------------|
B:-------------------------------|
G:---7*---5--7-5-----3--5--7*----|
D:---7*---5--7-5--5*-3--5--7*----|
A:---5*---3--5-3--5*-1--3--5*----|
E:----------------3*-------------|



e:---------------------------|
B:---------------------------|
G:-7*---5--7-5-------3---5-7-|
D:-7*---5-------5*---------7-|
A:-5*---3-------5*-1---3---5-|
E:--------------3*-----------|


e:-------------\----------|
B:-------------\----------|
G:7----5-------\---7------|
D:--7----5-----\--7-------|
A:-----------7-\-5--------|
E:-------------\----------|

Related for Walking In The Air tab