Guitaretab - guitar tabs
Song name
# A B C D E F G H I J K L M N O P Q R S T U V W X Y Z

Nightwish - She Is My Sin tab

#----------------------------------PLEASE NOTE---------------------------------#
#This file is the author's own work and represents their interpretation of the #
#song. You may only use this file for private study, scholarship, or research. #
#------------------------------------------------------------------------------#

SHE IS MY SIN
As recorded by Nightwish
(From the 2000 Album WISHMASTER)

Transcribed by Hard 'n' heavy
	

Words and Music by Nightwish
Arranged by Nightwish

Gtr I (E A D G B E) - 'Synth (Tuomas)'
Gtr II (E A D G B E) - 'Keyboard (Tuomas)'
Gtr III (E A D G B E) - 'Vocals (Tarja)'
Gtr IV (E A D G B E) - 'Guitar (Emppu)'
Gtr V (E A D G B E) - 'Solo Guitar (Emppu)'

 Intro
  Q=155
  C5                            Bb5     C5                              D#5 F5
 4/4
  Gtr I
  W                 +W                  +W                  +W
|-8---------------|-(8)---------------|-(8)---------------|-(8)----------------|
|-----------------|-------------------|-------------------|--------------------|
|-----------------|-------------------|-------------------|--------------------|
|-----------------|-------------------|-------------------|--------------------|
|-----------------|-------------------|-------------------|--------------------|
|-----------------|-------------------|-------------------|--------------------|
|
| Gtr II
| E E E E E E E E    E  E E E E E E E    E  E E E E E E E    E  E E E E E E  E
|-3-----3-4-----4-|--3------3-1-----1-|--3------3-4-----4-|--3-----------------|
|---1-4-------4---|-----1-4-------3---|-----1-4-------4---|-----1-4-6-8---9----|
|-----------5-----|-------------3-----|-------------5-----|-------------8---10-|
|-----------------|-------------------|-------------------|--------------------|
|-----------------|-------------------|-------------------|--------------------|
|-----------------|-------------------|-------------------|--------------------|
|
| Gtr IV
| E E E E H          H        E E E E    E  E E E H          H        E E E  E
|-----------------|-------------------|-------------------|--------------------|
|-----------------|-------------------|-------------------|-------------4----6-|
|-5-5-5-----------|-------------------|--5--5-5-----------|-------------3----5-|
|-5-5-5-----------|-------------8---8-|--5--5-5-----------|-------------1----3-|
|-3-3-3-----------|-------------8---8-|--3--3-3-----------|--------------------|
|-----------------|-------------6---6-|-------------------|--------------------|


  C5           F5 F      C5   D#5  Bb5  G5
  +H.              Q     Q     Q    Q    Q
|-(8)------------------|-8----11-------------|
|------------------6---|-----------11--------|
|----------------------|----------------12---|
|----------------------|---------------------|
|----------------------|---------------------|
|----------------------|---------------------|
|
|  E   E E E E  E  E E   E  E  E E  E E  E E
|----------------------|---------------------|
|--8-------8-9-------9-|-8-------8--6------6-|
|--------8--------10---|-------8---------7---|
|-----10-------10------|---10---------8------|
|----------------------|---------------------|
|----------------------|---------------------|
|
|  E   E H         Q     Q     Q    Q    Q
|----------------------|---------------------|
|----------------------|-------4-------------|
|----------------------|-5-----3----3--------|
|--5---5-5-------------|-5-----1----3----5---|
|--3---3-3---------3---|-3----------1----5---|
|------------------1---|-----------------3---|


  G#5                      Bb5
   W                        W
|------------------------|------------------|
|------------------------|-11---------------|
|-13---------------------|------------------|
|------------------------|------------------|
|------------------------|------------------|
|------------------------|------------------|
|
|  E  E  E  E  E  E E  E    E E E E E E E E
|------------------------|------------------|
|--8---------------------|--------6-------6-|
|----------10-------8----|-10---8---7---7---|
|----10-10----10-10---10-|----8-------8-----|
|------------------------|------------------|
|------------------------|------------------|
|
|  W                        W
|------------------------|------------------|
|------------------------|------------------|
|------------------------|------------------|
|--6---------------------|--8---------------|
|--6---------------------|--8---------------|
|--4---------------------|--6---------------|


 Interlude
  C5                              Bb5
   H         H           H         H
|-15--------16--------|-15-----------------|
|-13------------------|-----------18-------|
|---------------------|-----------15-------|
|---------------------|--------------------|
|---------------------|--------------------|
|---------------------|--------------------|
|
|  E  E E E  E  E E E    E  E E E  E E E E
|---------------------|--------------------|
|--8------8--9------9-|--8------8--6-----6-|
|-------8---------8---|-------8--------7---|
|----10--------10-----|----10--------8-----|
|---------------------|--------------------|
|---------------------|--------------------|
|
|     PM|       PM|         PM|      PM  PM
|  E  E E E  E  E E E    E  E E E  E E E E
|---------------------|--------------------|
|---------------------|--------------------|
|---------------------|--------------------|
|--5------5--6------6-|--5------5--3---3---|
|-----3-3-------3-6---|-----3-6------1---1-|
|---------------------|--------------------|


  C5                                   F5
   H         H           H.             Q
|-15--------16--------|-15-------------16------|
|-13------------------|------------------------|
|---------------------|------------------------|
|---------------------|------------------------|
|---------------------|------------------------|
|---------------------|------------------------|
|
|  E  E E E  E  E E E    E   E E E E E  E    E
|---------------------|------------------------|
|--8------8--9------9-|--8-------6-8----9------|
|-------8---------8---|--------8-----8------10-|
|----10--------10-----|-----10-----------------|
|---------------------|------------------------|
|---------------------|------------------------|
|
|     PM|       PM|          PM|
|  E  E E E  E  E E E    E   E E E E E  S S  E
|---------------------|------------------------|
|---------------------|------------------------|
|---------------------|------------------------|
|--5------5--6------6-|--5-------5-5-3--6-5--3-|
|-----3-3-------3-6---|------3-6---------------|
|---------------------|------------------------|


  C5              F5     C5    D#5  Bb5  G5
   H.              Q      Q     Q    Q    Q
|----------------------|-------11-------------|
|-20-------------------|-13---------11--------|
|-17-------------------|-----------------12---|
|-----------------15---|----------------------|
|----------------------|----------------------|
|----------------------|----------------------|
|
|  E   E E E E  E  E E    E  E  E E  E E  E E
|----------------------|----------------------|
|--8-------8-9-------9-|--8-------8--6------6-|
|--------8--------10---|--------8---------7---|
|-----10-------10------|----10---------8------|
|----------------------|----------------------|
|----------------------|----------------------|
|
|  H.              Q      Q     Q    Q    Q
|----------------------|----------------------|
|----------------------|--------4-------------|
|--5-------------------|--5-----3----3--------|
|--5---------------3---|--5-----1----3----5---|
|--3---------------3---|--3----------1----5---|
|------------------1---|------------------3---|


  G#5                      Bb5
   W                        W
|------------------------|------------------|
|------------------------|-11---------------|
|-13---------------------|------------------|
|------------------------|------------------|
|------------------------|------------------|
|------------------------|------------------|
|
|  E  E  E  E  E  E E  E    E E E E E E E E
|------------------------|------------------|
|--8---------------------|--------6-------6-|
|----------10-------8----|-10---8---7---7---|
|----10-10----10-10---10-|----8-------8-----|
|------------------------|------------------|
|------------------------|------------------|
|
|  W                        W
|------------------------|------------------|
|------------------------|------------------|
|------------------------|------------------|
|--6---------------------|--8---------------|
|--6---------------------|--8---------------|
|--4---------------------|--6---------------|


  C5                              Bb5
   H         H           H         H
|-15--------16--------|-15-----------------|
|-13------------------|-----------18-------|
|---------------------|-----------15-------|
|---------------------|--------------------|
|---------------------|--------------------|
|---------------------|--------------------|
|
|  E  E E E  E  E E E    E  E E E  E E E E
|---------------------|--------------------|
|--8------8--9------9-|--8------8--6-----6-|
|-------8---------8---|-------8--------7---|
|----10--------10-----|----10--------8-----|
|---------------------|--------------------|
|---------------------|--------------------|
|
|     PM|       PM|         PM|      PM  PM
|  E  E E E  E  E E E    E  E E E  E E E E
|---------------------|--------------------|
|---------------------|--------------------|
|---------------------|--------------------|
|--5------5--6------6-|--5------5--3---3---|
|-----3-3-------3-6---|-----3-6------1---1-|
|---------------------|--------------------|


  C5                                   F5
   H         H           H.             Q
|-15--------16--------|-15-------------16------|
|-13------------------|------------------------|
|---------------------|------------------------|
|---------------------|------------------------|
|---------------------|------------------------|
|---------------------|------------------------|
|
|  E  E E E  E  E E E    E   E E E E E  E    E
|---------------------|------------------------|
|--8------8--9------9-|--8-------6-8----9------|
|-------8---------8---|--------8-----8------10-|
|----10--------10-----|-----10-----------------|
|---------------------|------------------------|
|---------------------|------------------------|
|
|     PM|       PM|          PM|
|  E  E E E  E  E E E    E   E E E E E  S S  E
|---------------------|------------------------|
|---------------------|------------------------|
|---------------------|------------------------|
|--5------5--6------6-|--5-------5-5-3--6-5--3-|
|-----3-3-------3-6---|------3-6---------------|
|---------------------|------------------------|


  C5              F5     C5    D#5  Bb5  G5
   H.              Q      Q     Q    Q    Q
|----------------------|-------11-------------|
|-20-------------------|-13---------11--------|
|-17-------------------|-----------------12---|
|-----------------15---|----------------------|
|----------------------|----------------------|
|----------------------|----------------------|
|
|  E   E E E E  E  E E    E  E  E E  E E  E E
|----------------------|----------------------|
|--8-------8-9-------9-|--8-------8--6------6-|
|--------8--------10---|--------8---------7---|
|-----10-------10------|----10---------8------|
|----------------------|----------------------|
|----------------------|----------------------|
|
|  H.              Q      Q     Q    Q    Q
|----------------------|----------------------|
|----------------------|--------4-------------|
|--5-------------------|--5-----3----3--------|
|--5---------------3---|--5-----1----3----5---|
|--3---------------3---|--3----------1----5---|
|------------------1---|------------------3---|


  G#5                      Bb5
   W                        W
|------------------------|------------------|
|------------------------|-11---------------|
|-13---------------------|------------------|
|------------------------|------------------|
|------------------------|------------------|
|------------------------|------------------|
|
|  E  E  E  E  E  E E  E    E E E E E E E E
|------------------------|------------------|
|--8---------------------|--------6-------6-|
|----------10-------8----|-10---8---7---7---|
|----10-10----10-10---10-|----8-------8-----|
|------------------------|------------------|
|------------------------|------------------|
|
|  W                        W
|------------------------|------------------|
|------------------------|------------------|
|------------------------|------------------|
|--6---------------------|--8---------------|
|--6---------------------|--8---------------|
|--4---------------------|--6---------------|


 Verse
  A5
   W                 +W                   W                H       H
|-12--------------|-(12)--------------|--12-------------|-12------10--------|
|-13--------------|-(13)--------------|--12-------------|-13------12--------|
|-14--------------|-(14)--------------|--12-------------|-12------12--------|
|-----------------|-------------------|-----------------|-------------------|
|-----------------|-------------------|-----------------|-------------------|
|-----------------|-------------------|-----------------|-------------------|
|
| Gtr III
|  Q.   E +Q   Q      H      Q   E  E    +H      Q   Q     Q   Q   Q   E  E
|--5----7-(7)--8--|--12---------------|-----------------|-------------------|
|-----------------|---------13--12----|---------10--12--|-13--13--12-----10-|
|-----------------|----------------12-|-(12)------------|-------------12----|
|-----------------|-------------------|-----------------|-------------------|
|-----------------|-------------------|-----------------|-------------------|
|-----------------|-------------------|-----------------|-------------------|
|
|  W                 +W                   W                W
|-----------------|-------------------|-----------------|-------------------|
|-----------------|-------------------|-----------------|-------------------|
|-----------------|-------------------|-----------------|-------------------|
|--7--------------|--(7)--------------|-----------------|-------------------|
|--7--------------|--(7)--------------|-----------------|-------------------|
|--5--------------|--(5)--------------|-----------------|-------------------|


  A5                               G5
    H         H           H         H
|--12--------13-------|--12--------10-------|
|--13--------15-------|--13--------12-------|
|--14--------14-------|--14--------12-------|
|---------------------|---------------------|
|---------------------|---------------------|
|---------------------|---------------------|
|
|  +W                    +Q    Q    H
|---------------------|---------------------|
|-(10)----------------|-(10)----------------|
|---------------------|---------------------|
|---------------------|---------------------|
|---------------------|---------------------|
|---------------------|---------------------|
|
|      PM|      PM|          PM|      PM  PM
|   E  E E E  E E E E     E  E E E  E E E E
|---------------------|---------------------|
|---------------------|---------------------|
|---------------------|---------------------|
|---------------------|---------------------|
|---7------7--8-----8-|---7------7--5---5---|
|------5-5------5-8---|------5-8------3---3-|


  A5
   W                    +W
|-12-----------------|-(12)----------------|
|-13-----------------|-(13)----------------|
|-14-----------------|-(14)----------------|
|--------------------|---------------------|
|--------------------|---------------------|
|--------------------|---------------------|
|
|  Q.    E  +Q    Q      Q.    E  +Q    Q
|--------------------|--12-----------------|
|-10----12-(12)--13--|--------13-(13)--12--|
|--------------------|---------------------|
|--------------------|---------------------|
|--------------------|---------------------|
|--------------------|---------------------|
|
|  W                     W
|--------------------|---------------------|
|--------------------|---------------------|
|--------------------|---------------------|
|--------------------|---------------------|
|--------------------|---------------------|
|--------------------|---------------------|


                                     F5                     G5
   W                    H     H       W           +H.        Q
|-13-----------------|-12----10----|--8--------|--(8)-------10--|
|-15-----------------|-13----12----|-10--------|-(10)-------12--|
|-14-----------------|-14----12----|-10--------|-(10)-------12--|
|--------------------|-------------|-----------|----------------|
|--------------------|-------------|-----------|----------------|
|--------------------|-------------|-----------|----------------|
|
|  Q.    E  +Q    Q     H     H       W           +H     H
|-13----12-(12)--10--|--8-----7----|--5--------|--(5)-----------|
|--------------------|-------------|-----------|----------------|
|--------------------|-------------|-----------|----------------|
|--------------------|-------------|-----------|----------------|
|--------------------|-------------|-----------|----------------|
|--------------------|-------------|-----------|----------------|
|
|  W                    W             W           +H     Q   Q
|--------------------|-------------|-----------|----------------|
|--------------------|-------------|-----------|----------------|
|--------------------|-------------|-----------|----------------|
|--------------------|-------------|--3--------|--(3)----3---5--|
|--------------------|-------------|--3--------|--(3)----3---5--|
|--------------------|-------------|--1--------|--(1)----1---3--|


  A5
   W                         +W
|-12----------------------|-(12)------------------------|
|-13----------------------|-(13)------------------------|
|-14----------------------|-(14)------------------------|
|-------------------------|-----------------------------|
|-------------------------|-----------------------------|
|-------------------------|-----------------------------|
|
|  Q.     E +Q      Q         Q.      E  +Q       Q
|--5------7-(7)-----8-----|--12-------------------------|
|-------------------------|----------13-(13)-----12-----|
|-------------------------|-----------------------------|
|-------------------------|-----------------------------|
|-------------------------|-----------------------------|
|-------------------------|-----------------------------|
|
|  PM-------------------------------------------------|
|  E  E E E  S  S E E S S     E  E E  E   S  S E  E S S
|-------------------------|-----------------------------|
|-------------------------|-----------------------------|
|-------------------------|-----------------------------|
|--7------7---------7-----|---7-------7-----------7-----|
|--7------7---------7-----|---7-------7-----------7-----|
|--5--5-5-5--5--5-5-5-5-5-|---5--5-5--5---5--5-5--5-5-5-|


  E5                   C5       G5
   W                    H        H
|-12-----------------|-12-------10------|
|-12-----------------|-13-------12------|
|-12-----------------|-12-------12------|
|--------------------|------------------|
|--------------------|------------------|
|--------------------|------------------|
|
|  Q.    E  +Q    Q     Q.    E  Q   Q
|--------------------|------------------|
|-------10-(10)--12--|-13----13-12------|
|-12-----------------|--------------12--|
|--------------------|------------------|
|--------------------|------------------|
|--------------------|------------------|
|
|  W                    H        H
|--------------------|------------------|
|--------------------|------------------|
|--------------------|--5---------------|
|--2-----------------|--5--------5------|
|--2-----------------|--3--------5------|
|--0-----------------|-----------3------|


  A5                                     G5
   W                         +W
|-12----------------------|-(12)----------------------|
|-13----------------------|-(13)----------------------|
|-14----------------------|-(14)----------------------|
|-------------------------|---------------------------|
|-------------------------|---------------------------|
|-------------------------|---------------------------|
|
|  Q    E  E  +E   E  Q       Q     E  E  +Q     E  E
|-------------------------|--12----12-----------------|
|-10---10-12-(12)-12-13---|-----------13-(13)---12-12-|
|-------------------------|---------------------------|
|-------------------------|---------------------------|
|-------------------------|---------------------------|
|-------------------------|---------------------------|
|
|    PM|           PM|           PM|          PM    PM-
|  E E  E  E   E   E  E E     E  E  E  E   E  E  E  E
|-------------------------|---------------------------|
|-------------------------|---------------------------|
|-------------------------|---------------------------|
|-------------------------|---------------------------|
|--7-------7---8--------8-|---7--------7---5-----5----|
|----5--5----------5--8---|------5--8---------3-----3-|


  A5
   W                             +W
|-12--------------------------|-(12)--------------------------|
|-13--------------------------|-(13)--------------------------|
|-14--------------------------|-(14)--------------------------|
|-----------------------------|-------------------------------|
|-----------------------------|-------------------------------|
|-----------------------------|-------------------------------|
|
|  Q    E  E  +E     E  Q         Q     E  E  +Q       E  E
|-----------------------------|--12----12---------------------|
|-10---10-12-(12)---12-13-----|-----------13-(13)-----12-12---|
|-----------------------------|-------------------------------|
|-----------------------------|-------------------------------|
|-----------------------------|-------------------------------|
|-----------------------------|-------------------------------|
|
|-----------------------------------------------------------|
|  E E  E  E   S  S  E  E S S     E  E  E  E   S  S E  E  S S
|-----------------------------|-------------------------------|
|-----------------------------|-------------------------------|
|-----------------------------|-------------------------------|
|--7-------7------------7-----|---7--------7-----------7------|
|--7-------7------------7-----|---7--------7-----------7------|
|--5-5--5--5---5--5--5--5-5-5-|---5--5--5--5---5--5-5--5--5-5-|


  D5                   A5    G5      A5       D5    A5   C5  G5  E5
   W                    H     H       H.       Q     Q    Q   Q   Q
|-13-----------------|-12----10----|-12-------13--|-12---12--10------|
|-15-----------------|-13----12----|-13-------15--|-13---13--12--12--|
|-14-----------------|-14----12----|-14-------14--|-14---12--12--12--|
|--------------------|-------------|--------------|--------------14--|
|--------------------|-------------|--------------|------------------|
|--------------------|-------------|--------------|------------------|
|
|  Q.    E  +Q    Q     H     H       W             +H        H
|-13----12-(12)--10--|--8-----7----|--5-----------|-(5)--------------|
|--------------------|-------------|--------------|------------------|
|--------------------|-------------|--------------|------------------|
|--------------------|-------------|--------------|------------------|
|--------------------|-------------|--------------|------------------|
|--------------------|-------------|--------------|------------------|
|
|  W                    H     H       H.       Q     Q    Q   Q   Q
|--------------------|-------------|--------------|------------------|
|--------------------|-------------|--------------|------------------|
|--7-----------------|-------------|-----------7--|-------5----------|
|--7-----------------|--7-----5----|--7--------7--|--7----5---5---2--|
|--5-----------------|--7-----5----|--7--------5--|--7----3---5---2--|
|--------------------|--5-----3----|--5-----------|--5--------3---0--|


  D5                                 A5
   W              +W                  W              +W
|--------------|-------------------|--8-----------|--(8)--------------|
|-10-----------|-(10)--------------|-10-----------|-(10)--------------|
|-10-----------|-(10)--------------|--9-----------|--(9)--------------|
|-12-----------|-(12)--------------|--------------|-------------------|
|--------------|-------------------|--------------|-------------------|
|--------------|-------------------|--------------|-------------------|
|
|  Q  Q  Q  Q      Q   E E +Q.   E    Q  Q  Q  Q      Q   E E +Q   Q
|--------------|-------------------|-----5--5--7--|---8---7-5-(5)--3--|
|-----3--3--5--|---6---5-6-(6)-----|--------------|-------------------|
|--------------|-------------------|--------------|-------------------|
|--------------|-------------------|--------------|-------------------|
|--------------|-------------------|--------------|-------------------|
|--------------|-------------------|--------------|-------------------|
|
|  W              +W                  W              +W
|--------------|-------------------|--------------|-------------------|
|--------------|-------------------|--------------|-------------------|
|--7-----------|--(7)--------------|--------------|-------------------|
|--7-----------|--(7)--------------|--7-----------|--(7)--------------|
|--5-----------|--(5)--------------|--7-----------|--(7)--------------|
|--------------|-------------------|--5-----------|--(5)--------------|


  F5                             E5
   W           +W                W                  W
|--8--------|--(8)-------------|-----------------|---------------|
|-10--------|-(10)-------------|-----------------|---------------|
|-10--------|-(10)-------------|-----------------|---------------|
|-----------|------------------|-----------------|---------------|
|-----------|------------------|-----------------|---------------|
|-----------|------------------|-----------------|---------------|
|
|  W            Q.   E +Q   Q    W                 +H       H
|--5--------|---5----3-(3)--1--|-----------------|---------------|
|-----------|------------------|-5---------------|-(5)-----------|
|-----------|------------------|-9---------------|-(9)-----------|
|-----------|------------------|-----------------|---------------|
|-----------|------------------|-----------------|---------------|
|-----------|------------------|-----------------|---------------|
|
|                                PM----------------|
|  W           +W                E E E E E E E E    E  E Q  H
|-----------|------------------|-----------------|---------------|
|-----------|------------------|-----------------|---------------|
|-----------|------------------|-----------------|---------------|
|--3--------|--(3)-------------|-2-2---2-2-2---2-|--2------------|
|--3--------|--(3)-------------|-2-2---2-2-2---2-|--2------------|
|--1--------|--(1)-------------|-0-0---0-0-0---0-|--0------------|


 Chorus
  A5                                        G5                   F5
   W                    +W                  W                     W
|--8-----------------|--(8)---------------|-7------------------|--5-----|
|-10-----------------|-(10)---------------|-8------------------|--6-----|
|--9-----------------|--(9)---------------|-7------------------|--5-----|
|--------------------|--------------------|--------------------|--------|
|--------------------|--------------------|--------------------|--------|
|--------------------|--------------------|--------------------|--------|
|
|  Q  E  E  +Q    Q      Q.    E  +Q   Q    Q.   E +E  E +E  E   +W
|-----8-10-(10)--12--|--12----10-(10)--8--|-7----8-(8)-7-(7)-5-|-(5)----|
|--------------------|--------------------|--------------------|--------|
|--------------------|--------------------|--------------------|--------|
|--------------------|--------------------|--------------------|--------|
|--------------------|--------------------|--------------------|--------|
|--------------------|--------------------|--------------------|--------|
|
|  W                    +H        +Q   Q    W                     W
|--------------------|--------------------|--------------------|--------|
|--------------------|--------------------|--------------------|--------|
|--------------------|--------------------|--------------------|--------|
|--7-----------------|--(7)-------(7)-----|-5------------------|--3-----|
|--7-----------------|--(7)-------(7)-----|-5------------------|--3-----|
|--5-----------------|--(5)-------(5)-----|-3------------------|--1-----|


  A5                                        D5                   G5
   W                    +W                   W                    H     H
|--8-----------------|--(8)---------------|-13-----------------|-12----10----|
|-10-----------------|-(10)---------------|-15-----------------|-13----12----|
|--9-----------------|--(9)---------------|-14-----------------|-12----12----|
|--------------------|--------------------|--------------------|-------------|
|--------------------|--------------------|--------------------|-------------|
|--------------------|--------------------|--------------------|-------------|
|
|  Q  E  E  +Q    Q      Q.    E  +Q   Q     Q.    E  +Q    Q     H     H
|-----8-10-(10)--12--|--12----10-(10)--8--|-13----12-(12)--10--|--8-----7----|
|--------------------|--------------------|-15----13-(13)--12--|-10-----8----|
|--------------------|--------------------|--------------------|-------------|
|--------------------|--------------------|--------------------|-------------|
|--------------------|--------------------|--------------------|-------------|
|--------------------|--------------------|--------------------|-------------|
|
|  W                    +W                   W                    W
|--------------------|--------------------|--------------------|-------------|
|--------------------|--------------------|--------------------|-------------|
|--------------------|--------------------|--7-----------------|-------------|
|--7-----------------|--(7)---------------|--7-----------------|--5----------|
|--7-----------------|--(7)---------------|--5-----------------|--5----------|
|--5-----------------|--(5)---------------|--------------------|--3----------|


  A5                                          G5                     F5
   W                     +W                   W                       W
|--8------------------|--(8)----------------|-7--------------------|--5-----|
|-10------------------|-(10)----------------|-8--------------------|--6-----|
|--9------------------|--(9)----------------|-7--------------------|--5-----|
|---------------------|---------------------|----------------------|--------|
|---------------------|---------------------|----------------------|--------|
|---------------------|---------------------|----------------------|--------|
|
|  Q   E  E  +Q    Q      Q.    E  +Q    Q    Q.    E  +E  E +E  E   +W
|------8-10-(10)--12--|--12----10-(10)---8--|-7-----8--(8)-7-(7)-5-|-(5)----|
|-----10-12-(12)--13--|--13----12-(12)--10--|-8----10-(10)-8-(8)-6-|-(6)----|
|---------------------|---------------------|----------------------|--------|
|---------------------|---------------------|----------------------|--------|
|---------------------|---------------------|----------------------|--------|
|---------------------|---------------------|----------------------|--------|
|
|  W                     +W                   W                       W
|---------------------|---------------------|----------------------|--------|
|---------------------|---------------------|----------------------|--------|
|---------------------|---------------------|----------------------|--------|
|--7------------------|--(7)----------------|-5--------------------|--3-----|
|--7------------------|--(7)----------------|-5--------------------|--3-----|
|--5------------------|--(5)----------------|-3--------------------|--1-----|


  A5                                          D5                   G5
   W                     +W                    W                    H     H
|--8------------------|--(8)----------------|-13-----------------|-12----10----|
|-10------------------|-(10)----------------|-15-----------------|-13----12----|
|--9------------------|--(9)----------------|-14-----------------|-12----12----|
|---------------------|---------------------|--------------------|-------------|
|---------------------|---------------------|--------------------|-------------|
|---------------------|---------------------|--------------------|-------------|
|
|  Q   E  E  +Q    Q      Q.    E  +Q    Q     Q.    E  +Q    Q     H     H
|------8-10-(10)--12--|--12----10-(10)---8--|-13----12-(12)--10--|--8-----7----|
|-----10-12-(12)--13--|--13----12-(12)--10--|-15----13-(13)--12--|-10-----8----|
|---------------------|---------------------|--------------------|-------------|
|---------------------|---------------------|--------------------|-------------|
|---------------------|---------------------|--------------------|-------------|
|---------------------|---------------------|--------------------|-------------|
|
|  W                     +W                    W                    W
|---------------------|---------------------|--------------------|-------------|
|---------------------|---------------------|--------------------|-------------|
|---------------------|---------------------|--7-----------------|-------------|
|--7------------------|--(7)----------------|--7-----------------|--5----------|
|--7------------------|--(7)----------------|--5-----------------|--5----------|
|--5------------------|--(5)----------------|--------------------|--3----------|


 Interlude
  A5                           G5
   H        H          H        H
|-12-------13-------|-12-------10-------|
|-13----------------|----------12-------|
|-14----------------|----------12-------|
|-------------------|-------------------|
|-------------------|-------------------|
|-------------------|-------------------|
|
| Gtr II
|  E E E E  E E E E    E E E E  E E E E
|-------------------|-------------------|
|--5-----5--6-----6-|--5-----5--3-----3-|
|------5--------5---|------5--------4---|
|----7--------7-----|----7--------5-----|
|-------------------|-------------------|
|-------------------|-------------------|
|
|    PM|      PM|        PM|      PM  PM
|  E E E E  E E E E    E E E E  E E E E
|-------------------|-------------------|
|-------------------|-------------------|
|-------------------|-------------------|
|-------------------|-------------------|
|--7-----7--8-----8-|--7-----7--5---5---|
|----5-5------5-8---|----5-8------3---3-|


  A5                                D5
   H        H          H.            Q
|-12-------13-------|-12------------13-----|
|-13----------------|---------------15-----|
|-14----------------|----------------------|
|-------------------|----------------------|
|-------------------|----------------------|
|-------------------|----------------------|
|
|  E E E E  E E E E    E  E E E E E  E   E
|-------------------|----------------------|
|--5-----5--6-----6-|--5------3-5----6-----|
|------5--------5---|-------5-----5------7-|
|----7--------7-----|-----7----------------|
|-------------------|----------------------|
|-------------------|----------------------|
|
|    PM|      PM|         PM|
|  E E E E  E E E E    E  E E E E E  S S E
|-------------------|----------------------|
|-------------------|----------------------|
|-------------------|----------------------|
|-------------------|----------------------|
|--7-----7--8-----8-|--7------7-7-5--8-7-5-|
|----5-5------5-8---|-----5-8--------------|


  A5            D5     A5   C5   G5   E5
   H.            Q      Q    Q    Q    Q
|-12------------13---|-12---12---10--------|
|-13------------15---|-13---13---12---12---|
|-14------------14---|-14---12---12---12---|
|--------------------|----------------14---|
|--------------------|---------------------|
|--------------------|---------------------|
|
|  E  E E E E E  E E    E E  E E  E E  E E
|--------------------|---------------------|
|--5------5-6------6-|--5------5--3------3-|
|-------5--------7---|-------5---------4---|
|-----7-------7------|----7---------5------|
|--------------------|---------------------|
|--------------------|---------------------|
|
|  H.            Q      Q    Q    Q    Q
|--------------------|---------------------|
|--------------------|---------------------|
|----------------7---|-------5-------------|
|--7-------------7---|--7----5----5----2---|
|--7-------------5---|--7----3----5----2---|
|--5-----------------|--5---------3----0---|


  F5                 G5
   W                  W
|------------------|------------------|
|-13---------------|-15---------------|
|-14---------------|-16---------------|
|-15---------------|-17---------------|
|------------------|------------------|
|------------------|------------------|
|
|  E E E E E E E E    E E E E E E E E
|------------------|------------------|
|--5---------------|--------3-------3-|
|--------7-----5---|--7---5---4---4---|
|----7-7---7-7---7-|----5-------5-----|
|------------------|------------------|
|------------------|------------------|
|
|  W                  W
|------------------|------------------|
|------------------|------------------|
|------------------|------------------|
|--3---------------|--5---------------|
|--3---------------|--5---------------|
|--1---------------|--3---------------|


 Verse
  A5
   W                         +W
|-------------------------|----------------------------|
|-17----------------------|-(17)-----------------------|
|-17----------------------|-(17)-----------------------|
|-19----------------------|-(19)-----------------------|
|-------------------------|----------------------------|
|-------------------------|----------------------------|
|
| Gtr III
|  Q.     E +Q      Q         Q.      E  +Q      Q
|--5------7-(7)-----8-----|--12------------------------|
|-------------------------|----------13-(13)-----------|
|-------------------------|----------------------------|
|-------------------------|----------------------------|
|-------------------------|----------------------------|
|-------------------------|----------------------------|
|
|  PM------------------------------------------------|
|  E  E E E  S  S E E S S     E  E E  E   S  S E E S S
|-------------------------|----------------------------|
|-------------------------|----------------------------|
|-------------------------|----------------------------|
|--7------7---------7-----|---7-------7----------7-----|
|--7------7---------7-----|---7-------7----------7-----|
|--5--5-5-5--5--5-5-5-5-5-|---5--5-5--5---5--5-5-5-5-5-|


  E5                   C5      G5
   W                    H       H
|--------------------|-------------------|
|-17-----------------|-17------15--------|
|-16-----------------|-17------16--------|
|-17-----------------|-17------17--------|
|--------------------|-------------------|
|--------------------|-------------------|
|
|  Q.    E  +Q    Q     Q   Q   Q   E  E
|--------------------|-------------------|
|-------10-(10)--12--|-13--13--12-----10-|
|-12-----------------|-------------12----|
|--------------------|-------------------|
|--------------------|-------------------|
|--------------------|-------------------|
|
|  W                    H       H
|--------------------|-------------------|
|--------------------|-------------------|
|--------------------|--5----------------|
|--2-----------------|--5-------5--------|
|--2-----------------|--3-------5--------|
|--0-----------------|----------3--------|


  A5                                    G5
   W                        +W
|------------------------|--------------------------|
|-17---------------------|-(17)---------------------|
|-17---------------------|-(17)---------------------|
|-19---------------------|-(19)---------------------|
|------------------------|--------------------------|
|------------------------|--------------------------|
|
|  Q.      E  +Q     Q       Q     E  E  +Q     Q
|------------------------|--12----12----------------|
|-10------12-(12)---13---|-----------13-(13)---12---|
|------------------------|--------------------------|
|------------------------|--------------------------|
|------------------------|--------------------------|
|------------------------|--------------------------|
|
|     PM|         PM|           PM|          PM   PM-
|  E  E E  E   E  E  E E     E  E  E  E   E  E  E E
|------------------------|--------------------------|
|------------------------|--------------------------|
|------------------------|--------------------------|
|------------------------|--------------------------|
|--7-------7---8-------8-|---7--------7---5-----5---|
|-----5-5---------5--8---|------5--8---------3----3-|


  A5
   W                            +W
|----------------------------|------------------------------|
|-17-------------------------|-(17)-------------------------|
|-17-------------------------|-(17)-------------------------|
|-19-------------------------|-(19)-------------------------|
|----------------------------|------------------------------|
|----------------------------|------------------------------|
|
|  Q.      E  +Q       Q         Q     E  E  +Q       Q
|----------------------------|--12----12--------------------|
|-10------12-(12)-----13-----|-----------13-(13)-----12-----|
|----------------------------|------------------------------|
|----------------------------|------------------------------|
|----------------------------|------------------------------|
|----------------------------|------------------------------|
|
|---------------------------------------------------------|
|  E  E E  E   S  S E  E S S     E  E  E  E   S  S E  E S S
|----------------------------|------------------------------|
|----------------------------|------------------------------|
|----------------------------|------------------------------|
|--7-------7-----------7-----|---7--------7-----------7-----|
|--7-------7-----------7-----|---7--------7-----------7-----|
|--5--5-5--5---5--5-5--5-5-5-|---5--5--5--5---5--5-5--5-5-5-|

[ Tab from: http://www.guitaretab.com/n/nightwish/35212.html ]
  D5                   A5    G5      A5       D5    A5   C5  G5  E5
   W                    H     H       H.       Q     Q    Q   Q   Q
|--------------------|-------------|--------------|------------------|
|-18-----------------|-17----15----|-17-------18--|-17---17--15------|
|-19-----------------|-17----16----|-17-------19--|-17---17--16--16--|
|-19-----------------|-19----17----|-19-------19--|-19---17--17--17--|
|--------------------|-------------|--------------|--------------19--|
|--------------------|-------------|--------------|------------------|
|
|  Q.    E  +Q    Q     H     H       W             +H        H
|-13----12-(12)--10--|--8-----7----|--5-----------|-(5)--------------|
|-15----13-(13)--12--|-10-----8----|--5-----------|-(5)--------------|
|--------------------|-------------|--------------|------------------|
|--------------------|-------------|--------------|------------------|
|--------------------|-------------|--------------|------------------|
|--------------------|-------------|--------------|------------------|
|
|  W                    H     H       H.       Q     Q    Q   Q   Q
|--------------------|-------------|--------------|------------------|
|--------------------|-------------|--------------|------------------|
|--7-----------------|-------------|-----------7--|-------5----------|
|--7-----------------|--7-----5----|--7--------7--|--7----5---5---2--|
|--5-----------------|--7-----5----|--7--------5--|--7----3---5---2--|
|--------------------|--5-----3----|--5-----------|--5--------3---0--|


  D5                                 A5
   W              +W                  W              +W
|--------------|-------------------|--------------|-------------------|
|--------------|-------------------|-13-----------|-(13)--------------|
|-14-----------|-(14)--------------|-14-----------|-(14)--------------|
|-15-----------|-(15)--------------|-14-----------|-(14)--------------|
|-17-----------|-(17)--------------|--------------|-------------------|
|--------------|-------------------|--------------|-------------------|
|
|  Q  Q  Q  Q      Q   E E +Q.   E    Q  Q  Q  Q      Q   E E +Q   Q
|--------------|-------------------|-----5--5--7--|---8---7-5-(5)--3--|
|-----3--3--5--|---6---5-6-(6)-----|--------------|-------------------|
|--------------|-------------------|--------------|-------------------|
|--------------|-------------------|--------------|-------------------|
|--------------|-------------------|--------------|-------------------|
|--------------|-------------------|--------------|-------------------|
|
|  W              +W                  W              +W
|--------------|-------------------|--------------|-------------------|
|--------------|-------------------|--------------|-------------------|
|--7-----------|--(7)--------------|--------------|-------------------|
|--7-----------|--(7)--------------|--7-----------|--(7)--------------|
|--5-----------|--(5)--------------|--7-----------|--(7)--------------|
|--------------|-------------------|--5-----------|--(5)--------------|


  F5                             E5
   W           +W                W                  W
|-----------|------------------|-----------------|---------------|
|-13--------|-(13)-------------|-----------------|---------------|
|-14--------|-(14)-------------|-----------------|---------------|
|-15--------|-(15)-------------|-----------------|---------------|
|-----------|------------------|-----------------|---------------|
|-----------|------------------|-----------------|---------------|
|
|  W            Q.   E +Q   Q    W                 +H       H
|--5--------|---5----3-(3)--1--|-0---------------|-(0)-----------|
|-----------|------------------|-----------------|---------------|
|-----------|------------------|-----------------|---------------|
|-----------|------------------|-----------------|---------------|
|-----------|------------------|-----------------|---------------|
|-----------|------------------|-----------------|---------------|
|
|                                PM--------------------|
|  W           +W                E E E E E E E E    E  E Q  H
|-----------|------------------|-----------------|---------------|
|-----------|------------------|-----------------|---------------|
|-----------|------------------|-----------------|---------------|
|--3--------|--(3)-------------|-2-2---2-2-2---2-|--2------------|
|--3--------|--(3)-------------|-2-2---2-2-2---2-|--2------------|
|--1--------|--(1)-------------|-0-0---0-0-0---0-|--0------------|


 Chorus
  A5                                        G5                    F5
   W                    +W                   W                     W
|--------------------|--------------------|---------------------|--------|
|-13-----------------|-(13)---------------|-12------------------|-10-----|
|-14-----------------|-(14)---------------|-12------------------|-10-----|
|-14-----------------|-(14)---------------|-12------------------|-10-----|
|--------------------|--------------------|---------------------|--------|
|--------------------|--------------------|---------------------|--------|
|
|  Q  E  E  +Q    Q      Q.    E  +Q   Q     Q.   E +E  E +E  E   +W
|-----8-10-(10)--12--|--12----10-(10)--8--|--7----8-(8)-7-(7)-5-|-(5)----|
|--------------------|--------------------|---------------------|--------|
|--------------------|--------------------|---------------------|--------|
|--------------------|--------------------|---------------------|--------|
|--------------------|--------------------|---------------------|--------|
|--------------------|--------------------|---------------------|--------|
|
|  W                    +W                   W                     W
|--------------------|--------------------|---------------------|--------|
|--------------------|--------------------|---------------------|--------|
|--------------------|--------------------|---------------------|--------|
|--7-----------------|--(7)---------------|--5------------------|--3-----|
|--7-----------------|--(7)---------------|--5------------------|--3-----|
|--5-----------------|--(5)---------------|--3------------------|--1-----|


  A5                                        D5                   G5
   W                    +W                   W                    H     H
|--8-----------------|--(8)---------------|-13-----------------|-12----10----|
|-10-----------------|-(10)---------------|-15-----------------|-13----12----|
|--9-----------------|--(9)---------------|-14-----------------|-12----12----|
|--------------------|--------------------|--------------------|-------------|
|--------------------|--------------------|--------------------|-------------|
|--------------------|--------------------|--------------------|-------------|
|
|  Q  E  E  +Q    Q      Q.    E  +Q   Q     Q.    E  +Q    Q     H     H
|-----8-10-(10)--12--|--12----10-(10)--8--|-13----12-(12)--10--|--8-----7----|
|--------------------|--------------------|-15----13-(13)--12--|-10-----8----|
|--------------------|--------------------|--------------------|-------------|
|--------------------|--------------------|--------------------|-------------|
|--------------------|--------------------|--------------------|-------------|
|--------------------|--------------------|--------------------|-------------|
|
|  W                    +W                   W                    W
|--------------------|--------------------|--------------------|-------------|
|--------------------|--------------------|--------------------|-------------|
|--------------------|--------------------|--7-----------------|-------------|
|--7-----------------|--(7)---------------|--7-----------------|--5----------|
|--7-----------------|--(7)---------------|--5-----------------|--5----------|
|--5-----------------|--(5)---------------|--------------------|--3----------|


  A5                                          G5                     F5
   W                     +W                   W                       W
|--8------------------|--(8)----------------|-7--------------------|--5-----|
|-10------------------|-(10)----------------|-8--------------------|--6-----|
|--9------------------|--(9)----------------|-7--------------------|--5-----|
|---------------------|---------------------|----------------------|--------|
|---------------------|---------------------|----------------------|--------|
|---------------------|---------------------|----------------------|--------|
|
|  Q   E  E  +Q    Q      Q.    E  +Q    Q    Q.    E  +E  E +E  E   +W
|------8-10-(10)--12--|--12----10-(10)---8--|-7-----8--(8)-7-(7)-5-|-(5)----|
|-----10-12-(12)--13--|--13----12-(12)--10--|-8----10-(10)-8-(8)-6-|-(6)----|
|---------------------|---------------------|----------------------|--------|
|---------------------|---------------------|----------------------|--------|
|---------------------|---------------------|----------------------|--------|
|---------------------|---------------------|----------------------|--------|
|
|  W                     +W                   W                       W
|---------------------|---------------------|----------------------|--------|
|---------------------|---------------------|----------------------|--------|
|---------------------|---------------------|----------------------|--------|
|--7------------------|--(7)----------------|-5--------------------|--3-----|
|--7------------------|--(7)----------------|-5--------------------|--3-----|
|--5------------------|--(5)----------------|-3--------------------|--1-----|


  A5                                          D5                   G5
   W                     +W                    W                    H     H
|--8------------------|--(8)----------------|-13-----------------|-12----10----|
|-10------------------|-(10)----------------|-15-----------------|-13----12----|
|--9------------------|--(9)----------------|-14-----------------|-12----12----|
|---------------------|---------------------|--------------------|-------------|
|---------------------|---------------------|--------------------|-------------|
|---------------------|---------------------|--------------------|-------------|
|
|  Q   E  E  +Q    Q      Q.    E  +Q    Q     Q.    E  +Q    Q     H     H
|------8-10-(10)--12--|--12----10-(10)---8--|-13----12-(12)--10--|--8-----7----|
|-----10-12-(12)--13--|--13----12-(12)--10--|-15----13-(13)--12--|-10-----8----|
|---------------------|---------------------|--------------------|-------------|
|---------------------|---------------------|--------------------|-------------|
|---------------------|---------------------|--------------------|-------------|
|---------------------|---------------------|--------------------|-------------|
|
|  W                     +W                    W                    W
|---------------------|---------------------|--------------------|-------------|
|---------------------|---------------------|--------------------|-------------|
|---------------------|---------------------|--7-----------------|-------------|
|--7------------------|--(7)----------------|--7-----------------|--5----------|
|--7------------------|--(7)----------------|--5-----------------|--5----------|
|--5------------------|--(5)----------------|--------------------|--3----------|


 Guitar Solo
  F5
   E   E   E  E  Q     E E    Q    E  E E  E  E E
|--8----------7--------8---|----------8----8--8---|
|-10---------10-------10---|---------10---10-10---|
|-10---------10-------10---|---------10---10-10---|
|--------------------------|----------------------|
|--------------------------|----------------------|
|--------------------------|----------------------|
|
| Gtr IV
|  PM--|
|  S S S S E  E +H           +W
|--------------------------|----------------------|
|--------------------------|----------------------|
|--------------------------|----------------------|
|--3-3-3------3-(3)--------|-(3)------------------|
|--3-3-3------3-(3)--------|-(3)------------------|
|--1-1-1------1-(1)--------|-(1)------------------|
|
| Gtr V
|  H             E  E  E E    E  E E  E E  E  E E
|--------------------------|------------5---------|
|--------------------------|----------5----3--5-6-|
|--------------------------|--5--4-5--------------|
|------------------------7-|----------------------|
|-------------------7--8---|----------------------|
|--------------------------|----------------------|


  A5
   E E E  E Q    E E    E  E  E E  E E  E E
|--8-----10-----12---|-13----12---12---10-----|
|-10-----12-----13---|-15----13---13---12-----|
|--9-----14-----14---|-14----14---14---12-----|
|--------------------|------------------------|
|--------------------|------------------------|
|--------------------|------------------------|
|
|  W                   +W
|--------------------|------------------------|
|--------------------|------------------------|
|--------------------|------------------------|
|--7-----------------|-(7)--------------------|
|--7-----------------|-(7)--------------------|
|--5-----------------|-(5)--------------------|
|
|  Q   E  E E E  Q      E  E  E E  E E  E E
|------8----7-8--8---|------------------------|
|--5-----------------|--6-------5-------------|
|---------9----------|--------7----5----4-5---|
|--------------------|------------------------|
|--------------------|------------------------|
|--------------------|------------------------|


  F5
   E   E   E  E    Q     E E
|--8----------7----------8-----|
|-10---------10---------10-----|
|-10---------10---------10-----|
|------------------------------|
|------------------------------|
|------------------------------|
|
|  S S S S E  E   +H
|------------------------------|
|------------------------------|
|------------------------------|
|--3-3-3------3---(3)----------|
|--3-3-3------3---(3)----------|
|--1-1-1------1---(1)----------|
|
|  E   E   E  S S  E  E  E S S
|------------------------------|
|------------------3---------3-|
|--5------------5--4-------2-4-|
|--7----------7-7----------3---|
|-------------8----------------|
|------------------------------|


                                              C
   E     E   E    E    E    E    E     E       W
|--------8--------8----8---------8----------|-12------------------|
|-------10-------10---10--------10----------|-13------------------|
|-------10-------10---10--------10----------|-12------------------|
|-------------------------------------------|---------------------|
|-------------------------------------------|---------------------|
|-------------------------------------------|---------------------|
|
| +W                                           W
|-------------------------------------------|---------------------|
|-------------------------------------------|---------------------|
|-------------------------------------------|--5------------------|
|-(3)---------------------------------------|--5------------------|
|-(3)---------------------------------------|--3------------------|
|-(1)---------------------------------------|---------------------|
|
|  S  S  S S S S  S S  S  S S S  S  S  S  S    Q.   E E. S +E  E
|-------------------------------------------|---------------------|
|--5-------5-6------6--8------8-10-------10-|--8----8-8--6-(6)-5--|
|--5--5----5-7-7----7--9--9---9-10-10----10-|--9----9-9--7-(7)-5--|
|-----7--7-----9--7------10-7------12-------|---------------------|
|--------8--------8---------8---------12----|---------------------|
|-------------------------------------13----|---------------------|


  G5              A5
   W               Q.      E  +H
|-10------------|-12------13-(13)-------|
|-12------------|-13------15-(15)-------|
|-12------------|-14------14-(14)-------|
|---------------|-----------------------|
|---------------|-----------------------|
|---------------|-----------------------|
|
|  W               E  E E  E   E  E E E
|---------------|-----------------------|
|---------------|-----------------------|
|---------------|-----------------------|
|--5------------|-----------------------|
|--5------------|--7----5--7---8----5-8-|
|--3------------|-----5-----------5-----|
|
|  Q.   E Q  Q     W
|---------------|-----------------------|
|--5---------8--|-----------------------|
|--7----5-4--7--|-[9]-------------------|
|-------7-5-----|-----------------------|
|---------------|-----------------------|
|---------------|-----------------------|


                          A5    G5       D5
   Q.      E  +H           Q.    E  +Q    Q
|-----------------------|-------15-(15)--13--|
|-15------17-(17)-------|-17----15-(15)--15--|
|-16------17-(17)-------|-17----16-(16)--14--|
|-17------19-(19)-------|-19-----------------|
|-----------------------|--------------------|
|-----------------------|--------------------|
|
|  E  E E  E   E  E E E    Q.    E  +Q    Q
|-----------------------|--------------------|
|-----------------------|--------------------|
|-----------------------|-----------------7--|
|--5-------5------------|--7-----5--(5)---7--|
|-------5------7----5-7-|--7-----5--(5)---5--|
|-----5-----------5-----|--5-----3--(3)------|
|
|  W                       W
|-----------------------|--------------------|
|-----------------------|--------------------|
|-----------------------|--------------------|
|-----------------------|--------------------|
|-----------------------|--------------------|
|-----------------------|--------------------|


  A5  C5  G5  E5    A5
   Q   Q   Q   Q     Q.      E  +H
|-12--12--10------|-12------13-(13)-------|
|-13--13--12--12--|-13------15-(15)-------|
|-14--12--12--12--|-14------14-(14)-------|
|-------------14--|-----------------------|
|-----------------|-----------------------|
|-----------------|-----------------------|
|
|  Q   Q   Q   Q     E  E E  E   E  E E E
|-----------------|-----------------------|
|-----------------|-----------------------|
|------5----------|-----------------------|
|--7---5---5---2--|-----------------------|
|--7---3---5---2--|--7----5--7---8----5-8-|
|--5-------3---0--|-----5-----------5-----|


                                G5       D5
   Q.      E  +H           Q.    E  +Q    Q
|-----------------------|-------15-(15)--13--|
|-15------17-(17)-------|-17----15-(15)--15--|
|-16------17-(17)-------|-17----16-(16)--14--|
|-17------19-(19)-------|-19-----------------|
|-----------------------|--------------------|
|-----------------------|--------------------|
|
|  E  E E  E   E  E E E    Q.    E  +Q    Q
|-----------------------|--------------------|
|-----------------------|--------------------|
|-----------------------|-----------------7--|
|--5-------5------------|--7-----5--(5)---7--|
|-------5------7----5-7-|--7-----5--(5)---5--|
|-----5-----------5-----|--5-----3--(3)------|


  A5  C5  G5  E5    C5
   Q   Q   Q   Q     Q.      E  +H
|-12--12--10------|-15------16-(16)--------|
|-13--13--12--12--|-16------18-(18)--------|
|-14--12--12--12--|-17------17-(17)--------|
|-------------14--|------------------------|
|-----------------|------------------------|
|-----------------|------------------------|
|
|  Q   Q   Q   Q     E  E E  E   E  E E  E
|-----------------|------------------------|
|-----------------|------------------------|
|------5----------|------------------------|
|--7---5---5---2--|------------------------|
|--7---3---5---2--|-10----8-10--11----8-11-|
|--5-------3---0--|-----8-----------8------|


                           F5
   Q.      E  +H            W
|------------------------|------------------|
|-18------20-(20)--------|-21---------------|
|-19------20-(20)--------|-22---------------|
|-20------22-(22)--------|-22---------------|
|------------------------|------------------|
|------------------------|------------------|
|
|  E  E E  E   E  E E  E    E E E E E E E E
|------------------------|------------------|
|------------------------|------------------|
|------------------------|--5-------7-------|
|--8-------8-------------|----6-5-6---6-5-6-|
|-------8-----10----8-10-|------------------|
|-----8-----------8------|------------------|


                     C5
   W                  Q.      E  +H
|------------------|------------------------|
|-23---------------|-20------21-(21)--------|
|-22---------------|-20------22-(22)--------|
|-24---------------|-22------22-(22)--------|
|------------------|------------------------|
|------------------|------------------------|
|
|  E. E. E  H         E  E E  E   E  E E  E
|------------------|------------------------|
|--8--6------------|------------------------|
|--------8-[7]-----|------------------------|
|------------------|------------------------|
|------------------|-10----8-10--11----8-11-|
|------------------|-----8-----------8------|


                           F5
   Q.      E  +H            W
|------------------------|------------------|
|-18------20-(20)--------|------------------|
|-19------20-(20)--------|-20---------------|
|-20------22-(22)--------|-22---------------|
|------------------------|-23---------------|
|------------------------|------------------|
|
|  E  E E  E   E  E E  E    E E E E E E E E
|------------------------|------------------|
|------------------------|------------------|
|------------------------|--5-------7-------|
|--8-------8-------------|----6-5-6---6-5-6-|
|-------8-----10----8-10-|------------------|
|-----8-----------8------|------------------|


                      A5
   H        H          Q.      E  +H
|-------------------|-------------------------|
|-------------------|-17------18-(18)---------|
|-20-------19-------|-17------19-(19)---------|
|-22-------21-------|-19------19-(19)---------|
|-22-------22-------|-------------------------|
|-------------------|-------------------------|
|
| Gtr III
|  W                   Q.      E  +Q     E  E
|-------------------|-------------------------|
|-------------------|-17------18-(18)---18-17-|
|-------------------|-17------19-(19)---19-17-|
|-------------------|-------------------------|
|-------------------|-------------------------|
|-------------------|-------------------------|
|
| Gtr IV
|  E E E E  E E E E    E  E E  E   E  E  E  E
|-------------------|-------------------------|
|-------------------|-------------------------|
|--5--------4-------|-------------------------|
|----6-5-6----6-5-3-|-------------------------|
|-------------------|--7----5--7---8-----5--8-|
|-------------------|-----5-----------5-------|


                                G5       D5
   Q.      E  +H           Q.    E  +Q    Q
|-----------------------|-------15-(15)--13--|
|---------17-(17)-------|-17----15-(15)--15--|
|-19------17-(17)-------|-17----16-(16)--14--|
|-21------19-(19)-------|-19-----------------|
|-22--------------------|--------------------|
|-----------------------|--------------------|
|
|  Q.      E  +Q    Q      Q.    E  +Q    Q
|-----------------------|-------15-(15)--13--|
|-15------17-(17)-------|-17----15-(15)--15--|
|-16------17-(17)-------|-17-----------------|
|-----------------------|--------------------|
|-----------------------|--------------------|
|-----------------------|--------------------|
|
|  E  E E  E   E  E E E    Q.    E  +Q    Q
|-----------------------|--------------------|
|-----------------------|--------------------|
|-----------------------|-----------------7--|
|--5-------5------------|--7-----5--(5)---7--|
|-------5------7----5-7-|--7-----5--(5)---5--|
|-----5-----------5-----|--5-----3--(3)------|


  A5  C5  G5  E5    A5
   Q   Q   Q   Q     Q.      E  +H
|-12--12--10------|-12------13-(13)---------|
|-13--13--12--12--|-13------15-(15)---------|
|-14--12--12--12--|-14------14-(14)---------|
|-------------14--|-------------------------|
|-----------------|-------------------------|
|-----------------|-------------------------|
|
|  Q   Q   Q   Q     Q.      E  +Q     E  E
|-12--12--10------|-12------13-(13)---13-12-|
|-13--13--12--12--|-13------15-(15)---15-13-|
|-------------12--|-------------------------|
|-----------------|-------------------------|
|-----------------|-------------------------|
|-----------------|-------------------------|
|
|  Q   Q   Q   Q     E  E E  E   E  E  E  E
|-----------------|-------------------------|
|-----------------|-------------------------|
|------5----------|-------------------------|
|--7---5---5---2--|-------------------------|
|--7---3---5---2--|--7----5--7---8-----5--8-|
|--5-------3---0--|-----5-----------5-------|


                                G5       D5
   Q.      E  +H           Q.    E  +Q    Q
|-----------------------|-------15-(15)--13--|
|-15------17-(17)-------|-17----15-(15)--15--|
|-16------17-(17)-------|-17----16-(16)--14--|
|-17------19-(19)-------|-19-----------------|
|-----------------------|--------------------|
|-----------------------|--------------------|
|
|  Q.      E  +Q    Q      Q.    E  +Q    Q
|-10------12-(12)-------|-12----15-(15)--13--|
|-12------13-(13)-------|-13----15-(15)--15--|
|-----------------------|--------------------|
|-----------------------|--------------------|
|-----------------------|--------------------|
|-----------------------|--------------------|
|
|  E  E E  E   E  E E E    Q.    E  +Q    Q
|-----------------------|--------------------|
|-----------------------|--------------------|
|-----------------------|-----------------7--|
|--5-------5------------|--7-----5--(5)---7--|
|-------5------7----5-7-|--7-----5--(5)---5--|
|-----5-----------5-----|--5-----3--(3)------|


  A5  C5  G5  E5    F5
   Q   Q   Q   Q     E  E E  E Q   E E
|-12--12--10------|--------------------|
|-13--13--12--12--|-13-13---12----13---|
|-14--12--12--12--|-14-14---14----14---|
|-------------14--|-15-15---15----15---|
|-----------------|--------------------|
|-----------------|--------------------|
|
|  Q   Q   Q   Q     W
|-12--12--10------|--------------------|
|-13--13--12--12--|--------------------|
|-------------12--|--------------------|
|-----------------|--------------------|
|-----------------|--------------------|
|-----------------|--------------------|
|
|                    PM-----------------
|  Q   Q   Q   Q     E  E E  E Q   E E
|-----------------|--------------------|
|-----------------|--------------------|
|------5----------|--------------------|
|--7---5---5---2--|--3--3----3-----3---|
|--7---3---5---2--|--3--3----3-----3---|
|--5-------3---0--|--1--1----1-----1---|


         G5             A5
  E  E E  E E  E  Q      W
|---------------------|---------------------|
|---13---15---15-15---|---------------------|
|---14---16---16-16---|-17------------------|
|---15---17---17-17---|-19------------------|
|---------------------|-19------------------|
|---------------------|-17------------------|
|
| W                      Q   E  E  +Q    Q
|---------------------|---------------------|
|---------------------|-----13-15-(15)--17--|
|---------------------|---------------------|
|---------------------|---------------------|
|---------------------|---------------------|
|---------------------|---------------------|
|
|-------------------|
| E  E E  E E  E  E E    W
|---------------------|---------------------|
|---------------------|---------------------|
|---------------------|---------------------|
|----3----5----5--5-5-|--7------------------|
|----3----5----5--5-5-|--7------------------|
|----1----3----3--3-3-|--5------------------|


                        G/E
   +W                    W
|---------------------|--------------------------|
|---------------------|--------------------------|
|-(17)----------------|-16-----------------------|
|-(19)----------------|-17-----------------------|
|-(19)----------------|-19-----------------------|
|-(17)----------------|--------------------------|
|
|   Q.    E  +Q    Q     Q.    E  +E   E  +E   E
|---------------------|--------------------------|
|--17----15-(15)--13--|-12----13-(13)-12-(12)-10-|
|---------------------|--------------------------|
|---------------------|--------------------------|
|---------------------|--------------------------|
|---------------------|--------------------------|
|
|  +W                    W
|---------------------|--------------------------|
|---------------------|--------------------------|
|---------------------|--------------------------|
|--(7)----------------|--------------------------|
|--(7)----------------|--------------------------|
|--(5)----------------|--------------------------|


  F/C           Am
    W            W
|-------------|--------------------|
|-------------|-13-----------------|
|--14---------|-14-----------------|
|--15---------|-14-----------------|
|--15---------|-12-----------------|
|-------------|--------------------|
|
|  +W            Q  E  E  +Q    Q
|-------------|-----8-10-(10)--12--|
|-(10)--------|--------------------|
|-------------|--------------------|
|-------------|--------------------|
|-------------|--------------------|
|-------------|--------------------|
|
|   W            W
|-------------|--------------------|
|-------------|--------------------|
|-------------|--------------------|
|-------------|--------------------|
|-------------|--------------------|
|-------------|--------------------|


                       Dm
   +W                   W
|--------------------|-10-----------------|
|-(13)---------------|-10-----------------|
|-(14)---------------|-10-----------------|
|-(14)---------------|-12-----------------|
|-(12)---------------|--------------------|
|--------------------|--------------------|
|
|   Q.    E  +Q   Q     Q.    E  +Q    Q
|--12----10-(10)--8--|-13----12-(12)--10--|
|--------------------|--------------------|
|--------------------|--------------------|
|--------------------|--------------------|
|--------------------|--------------------|
|--------------------|--------------------|
|
|   W                   W
|--------------------|--------------------|
|--------------------|--------------------|
|--------------------|--------------------|
|--------------------|--------------------|
|--------------------|--------------------|
|--------------------|--------------------|


  Csus2/G/D     C5
   H     H       W
|-------------|-11-----------------------------|
|-13----12----|-13-----------------------------|
|-12----12----|-12-----------------------------|
|-12----12----|--------------------------------|
|-10----------|--------------------------------|
|-------------|--------------------------------|
|
|  H     H       Q      E  E    +Q       Q
|--8-----7----|--------11-13---(13)-----15-----|
|-------------|--------13-15---(15)-----16-----|
|-------------|--------------------------------|
|-------------|--------------------------------|
|-------------|--------------------------------|
|-------------|--------------------------------|
|
|                PM--------------------------|
|  W             E S S  E  S S   E  S S  E S S
|-------------|--------------------------------|
|-------------|--------------------------------|
|-------------|--5------5--------5-------5-----|
|-------------|--5------5--------5-------5-----|
|-------------|--3-3-3--3--3-3---3--3-3--3-3-3-|
|-------------|--------------------------------|


 Breakdown
                                    Bb5                       G#5
   +W                                W                         W
|-(11)----------------------------|-10----------------------|--8-----|
|-(13)----------------------------|-11----------------------|--9-----|
|-(12)----------------------------|-10----------------------|--8-----|
|---------------------------------|-------------------------|--------|
|---------------------------------|-------------------------|--------|
|---------------------------------|-------------------------|--------|
|
|   Q.        E    +Q       Q        Q.    E  +E   E  +E  E   +W
|--15--------13---(13)-----11-----|-10----11-(11)-10-(10)-8-|-(8)----|
|--16--------15---(15)-----13-----|-11----13-(13)-11-(11)-9-|-(9)----|
|---------------------------------|-------------------------|--------|
|---------------------------------|-------------------------|--------|
|---------------------------------|-------------------------|--------|
|---------------------------------|-------------------------|--------|
|
|   PM--------------------------|
|   E  S S E  S S   E  S S  E S S    W                         W
|---------------------------------|-------------------------|--------|
|---------------------------------|-------------------------|--------|
|---5------5--------5-------5-----|-------------------------|--------|
|---5------5--------5-------5-----|--8----------------------|--6-----|
|---3--3-3-3--3-3---3--3-3--3-3-3-|--8----------------------|--6-----|
|---------------------------------|--6----------------------|--4-----|


  C5
   W
|-11-----------------------------|
|-13-----------------------------|
|-12-----------------------------|
|--------------------------------|
|--------------------------------|
|--------------------------------|
|
|  Q      E  E    +Q       Q
|--------11-13---(13)-----15-----|
|--------13-15---(15)-----16-----|
|--------------------------------|
|--------------------------------|
|--------------------------------|
|--------------------------------|
|
|  PM-----------------------------
|  E S S  E  S S   E  S S  E S S
|--------------------------------|
|--------------------------------|
|--5------5--------5-------5-----|
|--5------5--------5-------5-----|
|--3-3-3--3--3-3---3--3-3--3-3-3-|
|--------------------------------|


                                    F5
   +W                                W
|-(11)----------------------------|-16------------------|
|-(13)----------------------------|-18------------------|
|-(12)----------------------------|-17------------------|
|---------------------------------|---------------------|
|---------------------------------|---------------------|
|---------------------------------|---------------------|
|
|   Q.        E    +Q       Q        Q.    E  +Q    Q
|--15--------13---(13)-----11-----|-16----15-(15)--13---|
|--16--------15---(15)-----13-----|-18----16-(16)--15---|
|---------------------------------|---------------------|
|---------------------------------|---------------------|
|---------------------------------|---------------------|
|---------------------------------|---------------------|
|
|-------------------------------|
|   E  S S E  S S   E  S S  E S S    W
|---------------------------------|---------------------|
|---------------------------------|---------------------|
|---5------5--------5-------5-----|---------------------|
|---5------5--------5-------5-----|--3------------------|
|---3--3-3-3--3-3---3--3-3--3-3-3-|--3------------------|
|---------------------------------|--1------------------|


  Bb5           C5
   H     H       W
|-15----13----|-11-----------------------------|
|-16----15----|-13-----------------------------|
|-15----15----|-12-----------------------------|
|-------------|--------------------------------|
|-------------|--------------------------------|
|-------------|--------------------------------|
|
|  H     H       Q      E  E    +Q       Q
|-11----10----|--------11-13---(13)-----15-----|
|-13----11----|--------13-15---(15)-----16-----|
|-------------|--------------------------------|
|-------------|--------------------------------|
|-------------|--------------------------------|
|-------------|--------------------------------|
|
|                PM-----------------------------
|  W             E S S  E  S S   E  S S  E S S
|-------------|--------------------------------|
|-------------|--------------------------------|
|--3----------|--5------5--------5-------5-----|
|--3----------|--5------5--------5-------5-----|
|--1----------|--3-3-3--3--3-3---3--3-3--3-3-3-|
|-------------|--------------------------------|


   +W
|-(11)-----------------------------|
|-(13)-----------------------------|
|-(12)-----------------------------|
|----------------------------------|
|----------------------------------|
|----------------------------------|
|
|   Q.        E    +Q       Q
|--15--------13---(13)-----11------|
|--16--------15---(15)-----13------|
|----------------------------------|
|----------------------------------|
|----------------------------------|
|----------------------------------|
|
|-------------------------------|
|   E  S S E  S S   E  S S  E S S
|----------------------------------|
|----------------------------------|
|---5------5--------5-------5------|
|---5------5--------5-------5------|
|---3--3-3-3--3-3---3--3-3--3-3-3--|
|----------------------------------|


  Bb5                       G#5          C5
   W                         W            W
|-10----------------------|--8---------|-11-----------------------------|
|-11----------------------|--9---------|-13-----------------------------|
|-10----------------------|--8---------|-12-----------------------------|
|-------------------------|------------|--------------------------------|
|-------------------------|------------|--------------------------------|
|-------------------------|------------|--------------------------------|
|
|  Q.    E  +E   E  +E  E   +W            Q      E  E    +Q       Q
|-10----11-(11)-10-(10)-8-|-(8)--------|--------11-13---(13)-----15-----|
|-11----13-(13)-11-(11)-9-|-(9)--------|--------13-15---(15)-----16-----|
|-------------------------|------------|--------------------------------|
|-------------------------|------------|--------------------------------|
|-------------------------|------------|--------------------------------|
|-------------------------|------------|--------------------------------|
|
|                                         PM--------------------------|
|  W                         W            E S S  E  S S   E  S S  E S S
|-------------------------|------------|--------------------------------|
|-------------------------|------------|--------------------------------|
|-------------------------|------------|--5------5--------5-------5-----|
|--8----------------------|--6---------|--5------5--------5-------5-----|
|--8----------------------|--6---------|--3-3-3--3--3-3---3--3-3--3-3-3-|
|--6----------------------|--4---------|--------------------------------|


   +W
|-(11)----------------------------|
|-(13)----------------------------|
|-(12)----------------------------|
|---------------------------------|
|---------------------------------|
|---------------------------------|
|
|   Q.        E    +Q       Q
|--15--------13---(13)-----11-----|
|--16--------15---(15)-----13-----|
|---------------------------------|
|---------------------------------|
|---------------------------------|
|---------------------------------|
|
|   PM--------------------------|
|   E  S S E  S S   E  S S  E S S
|---------------------------------|
|---------------------------------|
|---5------5--------5-------5-----|
|---5------5--------5-------5-----|
|---3--3-3-3--3-3---3--3-3--3-3-3-|
|---------------------------------|


  F5                   Bb5           C5
   W                    H     H       H        H
|-16-----------------|-15----13----|-15-------16-------|
|-18-----------------|-16----15----|-16----------------|
|-17-----------------|-15----15----|-17----------------|
|--------------------|-------------|-------------------|
|--------------------|-------------|-------------------|
|--------------------|-------------|-------------------|
|
|                                    Gtr II
|  Q.    E  +Q    Q     H     H       E E E E  E E E E
|-16----15-(15)--13--|-11----10----|--3-----3--4-----4-|
|-18----16-(16)--15--|-13----11----|----1-4--------4---|
|--------------------|-------------|-------------5-----|
|--------------------|-------------|-------------------|
|--------------------|-------------|-------------------|
|--------------------|-------------|-------------------|
|
|  W                    W             E E E E  E E E E
|--------------------|-------------|-------------------|
|--------------------|-------------|-------------------|
|--------------------|--3----------|-------------------|
|--3-----------------|--3----------|--5-----5--6-----6-|
|--3-----------------|--1----------|----3-3------3-6---|
|--1-----------------|-------------|-------------------|


 Outro
                                    F5
   H        H          H.            Q
|-15-------16-------|-15------------16----|
|-16----------------|-16------------18----|
|-17----------------|-17------------17----|
|-------------------|---------------------|
|-------------------|---------------------|
|-------------------|---------------------|
|
|  E E E E  E E E E    E  E E E E E  E  E
|--3-----3--4-----4-|--3------------------|
|----1-4--------4---|-----1-4-6-8----9----|
|-------------5-----|-------------8----10-|
|-------------------|---------------------|
|-------------------|---------------------|
|-------------------|---------------------|
|
|  E E E E  E E E E    H.            Q
|-------------------|---------------------|
|-------------------|---------------------|
|-------------------|--5------------------|
|--5-----5--6-----6-|--5-------------3----|
|----3-3------3-6---|--3-------------3----|
|-------------------|----------------1----|


  C5    D#5  Bb5  G5     C5
   Q     Q    Q    Q      E  E Q  H
|-15----15---13--------|-20-20---------*|
|-16----16---15---15---|-20-20---------*|
|-17----15---15---15---|-17-17---------*|
|-----------------17---|---------------*|
|----------------------|---------------*|
|----------------------|---------------*|
|
|  E  E  E E  E E  E E    E  E Q  H
|----------------------|---------------*|
|--8-------8--6------6-|--8--8---------*|
|--------8---------7---|---------------*|
|----10---------8------|---------------*|
|----------------------|---------------*|
|----------------------|---------------*|
|
|  Q     Q    Q    Q      E  E Q  H
|----------------------|---------------*|
|--------4-------------|---------------*|
|--5-----3----3--------|--5--5---------*|
|--5-----1----3----5---|--5--5---------*|
|--3----------1----5---|--3--3---------*|
|------------------3---|---------------*|



Duration Legend
---------------
W - whole; H - half; Q - quarter; E - 8th; S - 16th; T - 32nd; X - 64th; a - acciaccatura
+ - note tied to previous; . - note dotted; .. - note double dotted
Uncapitalized letters represent notes that are staccato (1/2 duration)
Irregular groupings are notated above the duration line
Duration letters will always appear directly above the note/fret number it represents the
duration for.  Duration letters with no fret number below them represent rests.  Multi-
bar rests are notated in the form Wxn, where n is the number of bars to rest for.  Low
melody durations appear below the staff

Tablature Legend
----------------
 h   - hammer-on
 p   - pull-off
 b   - bend
 pb  - pre-bend
 r   - bend release (if no number after the r, then release immediately)
 /\  - slide into or out of (from/to "nowhere")
 s   - legato slide
 S   - shift slide
 - natural harmonic
[n]  - artificial harmonic
n(n) - tapped harmonic
 ~   - vibrato
 tr  - trill
 T   - tap
 TP  - trem. picking
 PM  - palm muting
\n/  - tremolo bar dip; n = amount to dip
 \n  - tremolo bar down
 n/  - tremolo bar up
/n\  - tremolo bar inverted dip
 =   - hold bend; also acts as connecting device for hammers/pulls
 <> - volume swell (louder/softer)
 x   - on rhythm slash represents muted slash
 o   - on rhythm slash represents single note slash

Misc Legend
-----------
 |  - bar
||  - double bar
||o - repeat start
o|| - repeat end
*|  - double bar (ending)
 :  - bar (freetime)
 $  - Segno
 &  - Coda
Tempo markers -  = BPM(8/16=s8/s16), where s8 = swing 8ths, s16 = swing 16ths

Related for She Is My Sin tab
Advertisement will be closed in 10 seconds