Song name
# A B C D E F G H I J K L M N O P Q R S T U V W X Y Z

Nightwish - While Your Lips Are Still Red tab

INTRO (CLEAN) open D



D-|--0---0-3-5-|-3-5-7-7-8-7-----|-----------------|-7-7-8-7-3-5-|-5-3-----|
A-|----3-------|-------------5-3-|---3-6-6-5-6-8-5-|-------------|-----5-3-|
F-|------------|-----------------|-5---------------|-------------|---------|
C-|------------|-----------------|-----------------|-------------|---------|
G-|------------|-----------------|-----------------|-------------|---------|
D-|------------|-----------------|-----------------|-------------|---------|



VERSE 1 and 2

 Play Arpeggio or whatever sounds best to you. There is no fixed rythm

Repeat for Verse 2

D--------|------------|
A--------|------------|
F--------|------------|
C--7-----|--3-----5---|
G--7-----|--3-----5---|
D--5-----|--1-----3---|



D--------------|---------------------------|
A--------------|---------------------------|
F--------5-----|---5-----7-----------------|
C--7-----5-----|---5-----7-----5--7--------|
G--7-----3-----|---3-----5-----5--7--------|
D--5-----------|---------------3--5--------|


CHORUS X 2 (I use OD on second chorus like end of an era version of Sleeping Sun)

D---------------------|---------------------------|
A---------------------|---------------------------|
F---------------------|--7------------------------|
C---7-----2-----5-----|--7------------------------|
G---7-----2-----5-----|--5------------------------|
D---5-----0-----3-----|---------------------------|


D---------------------|---------------------------|
A---------------------|---------------------------|
F---------------------|---------------------------|
C---7-----2-----3-----|--5------------------------|
G---7-----2-----3-----|--5------------------------|
D---5-----0-----1-----|--3------------------------|


Solo 1

D-----8-7-8------------|----8-7-8--------|
A--10--------10-10~----|--8--------8-8~--|
F----------------------|-----------------|
C----------------------|-----------------|
G----------------------|-----------------|
D----------------------|-----------------|

D-----8-7-8-------8-7-8------10-8-10-----10-8-10------12-10-12~---|
A--10-------10-10-------10-8---------8-8---------8-10-------------|
F-----------------------------------------------------------------|
C-----------------------------------------------------------------|
G-----------------------------------------------------------------|
D-----------------------------------------------------------------


Solo 2

D-----8-7-8-----------|-----------12-10-12------------|
A--10-------10-10~----|--10-12-13----------13-13~-----|
F---------------------|-------------------------------|
C---------------------|-------------------------------|
G---------------------|-------------------------------|
D---------------------|-------------------------------|

D--12-10-9-10---------|-----10-9-10--------|-----8-7-8---------|-------------------------|
A-------------12-12~--|--10---------10-10~-|--10-------10-10~--|--10-13----10~-----------|
F---------------------|--------------------|-------------------|--------12---------------|
C---------------------|--------------------|-------------------|-------------------------|
G---------------------|--------------------|-------------------|-------------------------|
D---------------------|--------------------|-------------------|-------------------------|

FINAL CHORUS X 2 (Overdrive)

D------------------------|---------------------------------------------|
A------------------------|---------------------------------------------|
F--7-----------5---------|--7------------------------------------------|
C--7-----7-----5-----5---|--7-----7-----8-----10-----------------------|
G--5-----7-----3-----5---|--5-----7-----8-----10-----------------------|
D--------5-----------3---|--------5-----6-----8------------------------|

OUTRO SOLO X 2

D-----13-12-13--------|-----13-12-13--------|
A--15----------15-15~-|--13----------13-13~-|
F---------------------|---------------------|
C---------------------|---------------------|
G---------------------|---------------------|
D---------------------|---------------------|

D-----13-12-13-------13-12-13-------15-13-15-------15-13-15-------17-15-17~|
A--15----------15-15----------15-13----------13-13----------13-15----------|
F--------------------------------------------------------------------------|
C--------------------------------------------------------------------------|
G--------------------------------------------------------------------------|
D--------------------------------------------------------------------------|
Tap to rate this tab
# A B C D E F G H I J K L M N O P Q R S T U V W X Y Z