Song name
# A B C D E F G H I J K L M N O P Q R S T U V W X Y Z

Nightwish - Two For Tragedy tab

Solo:

e:--------------------------------------8---7-------------------------------|
B:-10--8-------10--8----------------7-8-------10-7-8------------------------|
G:--------7-9--------7-9-b9(11)-9---------------------7-9----7--------------|
D:--------------------------------------------------------10---9-10-9-------|
A:------------------------------------------------------10-/12-10-9-5-/7~---|
E:--------------------------------------------------------------------------|

p.m. . . . .  .  .   .
e:--------------------------------------------------------------------|
B:-------------------------------------------------7-7-8---10-10-12---|
G:---------------7-9---7--\----------7----7-9--7-9-------9------------|
D:--------7-9-10-----9------9h10--10---10-----------------------------|
A:-7-9-10-------------------------------------------------------------|
E:--------------------------------------------------------------------|

Chorus:

No sympathy
No eternity
One light for each undeserved tear

e:-------------------------------------------|
B:-------------------------------------------|
G:-----5---7------4--5---------------5---4---|
D:-2---5---7---5--4--5---5---7---2---5---4---|
A:-2---3---5---5--2--3---5---7---2---3---2---|
E:-0-----------3---------3---5---0-----------|


Beneath the candle bed
Two souls with everything yet to be said
Tap to rate this tab
 
# A B C D E F G H I J K L M N O P Q R S T U V W X Y Z