Song name
# A B C D E F G H I J K L M N O P Q R S T U V W X Y Z

Nightwish - Live To Tell The Tale tab

NIGHTWISH
tuning, standerd

song, live to tell the tale,  intro

tabed by,nightwish24

im a nightwish freak nightwish rocks plus this song rocks. you wont find it any wear else. 

* = let ring
p=palm mute

play once
[----------------------------------------------]
[----------------------------------2-------5---]
[----------------------------------2-------5---]
[5*-----4*----------2*-------------0*------3*--]
[5------2-----------2--------------------------]
[3------2-----------0--------------------------]

play three times      
[--------------------------------------------]
[--------------------------------2-----5-----]
[--------------------------------2-----5-----]
[-p5x25-----4---------p2x13------0-----3-----]
[--3--------2----------2---------------------]
[--3--------2----------0---------------------]

thats it for the intro some one should finish it for me.
Tap to rate this tab
# A B C D E F G H I J K L M N O P Q R S T U V W X Y Z