Song name
# A B C D E F G H I J K L M N O P Q R S T U V W X Y Z

Nightwish - Walking In The Air Live tab

band-Nightwish
song-Walking in the air
album-Oceanborn
live: from wishes to eternity
tabber: emppu_jr.

PLEASE RATE!


2:45 Solo
e:-------------------------------------------------------------------|
B:-/10--15-15-13-13-10----10-15-15-13-13-10p6-8-h10-8--8-10-11--10-8-|
G:-------------------------------------------------------------------|
D:-------------------------------------------------------------------|
A:-------------------------------------------------------------------|
E:-------------------------------------------------------------------|

e:------------------------------------10--12-13-12-10--8h10p8----8h10p8----|
B:---------------------------10~~--10-------------------------10--------10b|
G:-7-9-10--9-7----5-7~-5\2-------------------------------14----------------|
D:-------------------------------------------------------------------------|
A:-------------------------------------------------------------------------|
E:-------------------------------------------------------------------------|

e:-10-12-13-12-13--13/15-15-15-15-17-17-15-15--15-15-17-18-17-15h18-----|
B:-10-------------------------------------------------------------------|
G:----------------------------------------------------------------------|
D:----------------------------------------------------------------------|
A:----------------------------------------------------------------------|
E:----------------------------------------------------------------------|

e:-----------------------------------|
B:-15h17-17^-17-15-13h15--13\10 10~--|
G:-----------------------------------|
D:-----------------------------------|
A:-----------------------------------|
E:-----------------------------------|
Tap to rate this tab
# A B C D E F G H I J K L M N O P Q R S T U V W X Y Z