Song name
# A B C D E F G H I J K L M N O P Q R S T U V W X Y Z

Nightwish - Over The Hils And Far Away tab

Band: Nightwish
Song: Over the hills and far away
Album: Over the hills and far away
Tabber: Emppu_jr.
Tuning: normal: eBGDAE      PLEASE RATE! ;)

I have tabbed solo and the outro solo.

1th solo(02:55):
e|--0-2-3-0-0-5-0-0-7-0-0-8-0-0-/10-0-0-10-0-01-12-12----------------------|
B|-----------------------------------------------------8p5h8p5h8-7p5h7p5h7-|
G|-------------------------------------------------------------------------|
D|-------------------------------------------------------------------------|
A|-------------------------------------------------------------------------|
E|-------------------------------------------------------------------------|

e|-------------------------------------------------------------------------|
B|--8p5h8p5h8-7p5h7------------------------------------17171717-19191919---|
G|------------------7p5---------------------------7-9~---------------------|
D|---------------------7p5-----------5-7-5-7-5-7/9-------------------------|
A|------------------------7-7-7~--7-7-7-7-7-7------------------------------|
E|-------------------------------------------------------------------------|
P.M:                      . .     . . . . . .

e|--------------------19191919-22222222-24242424~~~~-----------------------|
B|--20202020-22222222------------------------------------------------------|
G|-------------------------------------------------------------------------|
D|-------------------------------------------------------------------------|
A|-------------------------------------------------------------------------|
E|-------------------------------------------------------------------------|

The rythm is just as in the verse:
e|--------------------------------------------------------------------------|
B|--------------------------------------------------------------------------|
G|--------------------------------------------------------------------------|
D|--2-2-2-2-2-2-2-2-2-2-2-2-5-5-5-5-5-5-5-5-5-5-5-5-2-2-2-2-2-2-2-2-2-2-2-2-|
A|--2-2-2-2-2-2-2-2-2-2-2-2-5-5-5-5-5-5-5-5-5-5-5-5-2-2-2-2-2-2-2-2-2-2-2-2-|
E|--0-0-0-0-0-0-0-0-0-0-0-0-3-3-3-3-3-3-3-3-3-3-3-3-0-0-0-0-0-0-0-0-0-0-0-0-|
P.M:. . . . . . . . . . . . . . . . . . . . . . . . . . . . . . . . . . . .

e|--------------------------------------------------------------------------|
B|--------------------------------------------------------------------------|
G|--------------------------------------------------------------------------|
D|--7~7~7~7~7~7~7~7~7~7~7~7~2-2-2-2-2-2-2-2-2-2-2-2-3-3-3-3-3-3-3-3-3-3-3-3-|
A|--5~5~5~5~5~5~5~5~5~5~5~5~2-2-2-2-2-2-2-2-2-2-2-2-3-3-3-3-3-3-3-3-3-3-3-3-|
E|--------------------------0-0-0-0-0-0-0-0-0-0-0-0-3-3-3-3-3-3-3-3-3-3-3-3-|
P.M:                        . . . . . . . . . . . . . . . . . . . . . . . .

e|-------------------------------------------------------------------------|
B|-------------------------------------------------------------------------|
G|-------------------------------------------------------------------------|
D|--7-7-7-7-7-7-7-7-7-7-7-7-9-9-9-9-9-9-9-9-9-9-9-9------------------------|
A|--5-5-5-5-5-5-5-5-5-5-5-5-7-7-7-7-7-7-7-7-7-7-7-7------------------------|
E|-------------------------------------------------------------------------|

-----------------------------------------------------------------------------

2nd solo(04:20):
e|--2-4-5-4-2-5-4-2-5-4-2-5-4-2-5-4-2-5-4-2-5-4-2-5-4-2--------------------|
B|------------------------------------------------------5p2----------------|
G|---------------------------------------------------------4p2-------------|
D|------------------------------------------------------------4p2----------|
A|---------------------------------------------------------------4p2-0h2h4-|
E|-------------------------------------------------------------------------|

e|--------------------------------------------------------------------------|
B|------------------------7-9b10-10-9-7--------------7-9b10-10-9-7----------|
G|-----------2---2-4b6~-6---------------9-6-6-6-7-9----------------9-9-7-6--|
D|--2h4--4-4---4------------------------------------9---------------------9-|
A|--------------------------------------------------------------------------|
E|--------------------------------------------------------------------------|

e|-------------------------------------------------------------------------|
B|-------------------------------------------------------------------------|
G|--------11---------------------------------------------------------------|
D|--7-9b11--9b11b9-11-------------6-7-6-9~-7-9-11-9-11-12-11-12-14-12-14---|
A|--------------------7h9-9-7---9------------------------------------------|
E|----------------------------9--------------------------------------------|

e|--------------------------------------------------------------------------|
B|-----------------------------------------17-------------------------------|
G|----------------------------16--16~-18-19--19-18h19p18-16-18-16-----------|.FADE OUT
D|--16-14-16-18-16-18-19-18-19--19------------------------------------------|
A|--------------------------------------------------------------------------|
E|--------------------------------------------------------------------------|

It's hard to hear when it start to fade out, but I think it's something like that. The 
is the same as the chorus, just one tone up. It goes like this through the hole solo:

e|-----------------------|-------------------------------------|-----------|
B|-----------------------|-------------------------------------|-----------|
G|-----------------------|(It goes like this until it fades out|-----------|
D|--4-7-9-11-9-7-7-9-----|-with the solo)----------------------|-----------|
A|--4-7-7-9--7-7-5-7-----|-------------------------------------|-----------|
E|--2-5--------5---------|-------------------------------------|-----------|

That's all! Hope you enjoy.

If something is wrong with the tab or you are wondering about something, send me a mail 
Martin_emppu@hotmail.com

Tabbed by: Emppu_jr.
Tap to rate this tab
 
# A B C D E F G H I J K L M N O P Q R S T U V W X Y Z