Song name
# A B C D E F G H I J K L M N O P Q R S T U V W X Y Z

Nightwish - Kiteen Pallo Kipa tab

|-----------------------------------------------------|
|-------------------------------8-7-5--5-7-8--8-10-12-|
|-9--7-5~--4-2-4~--4-5-7-5-4-2------------------------|
|-----------------------------------------------------|
|-----------------------------------------------------|
|-----------------------------------------------------|

|------------------------|
|-12-10-8-10-\3~--8-7----|
|---------------------9~-|
|------------------------|
|------------------------|
|------------------------|
Tap to rate this tab
 
# A B C D E F G H I J K L M N O P Q R S T U V W X Y Z