Song name
# A B C D E F G H I J K L M N O P Q R S T U V W X Y Z

Nightwish - Planet Hell tab

Help us improve GuitareTab! Take a short survey!
-------------------------------------------------------------------------------
			     Nightwish - Planet hell
-------------------------------------------------------------------------------
Tabbed by:Eggo_boi_15
Email:Eggo1234@hotmail.co.uk

Tuning:Standard D

Yes all the other tabs say its in Drop C, But i know for a fact Emppu ONLY uses Standard 
1 step down.
Im pretty sure this is 100% correct.


Intro/Marcos verse

'Denying...'                 '..the lying..'
D|------------------------|--------------------------|
A|------------------------|--------------------------|
F|------------------------|--------------------------|
C|-------------------2--0-|--2--------------------0--|
G|-22222--2--222--2--2--0-|--22222--2--222--2--2--0--|
D|-00000--0--000--0--0----|--00000--0--000--0--0-----|

'A million..'                '..children fighting..'
D|------------------------|--------------------------|
A|------------------------|--------------------------|
F|------------------------|-----5-------5------------|
C|-------------------2--0-|-5---5---5---5------------|
G|-22222--2--222--2--2--0-|-5---3---5---7------------|
D|-00000--0--000--0--0----|-3-------3----------------|

'For lives..'                 '..in strife..'
D|------------------------|--------------------------|
A|------------------------|--------------------------|
F|------------------------|---------------------3----|
C|-------------------2--0-|--2-------------5----3----|
G|-22222--2--222--2--2--0-|--22222--2--22--5----1----|
D|-00000--0--000--0--0----|--00000--0--00--3---------|

'For hope..'     '..beyond..'   '..the horizon..'
D|------------------------|--------------------------|
A|------------------------|--------------------------|
F|------------------------|-----5-------5------------|
C|-------------------2--0-|-5---5---7---5------------|
G|-22222--2--222--2--2--0-|-5---3---7---7------------|
D|-00000--0--000--0--0----|-3-------5----------------|

Tarjas verse

'A dead world...'             '..a dark path..'
D|------------------------|--------------------------|
A|------------------------|--------------------------|
F|------------------------|--------------------------|
C|-------------------5--3-|--5-----------------5--3--|
G|-55555--5--555--5--5--3-|--55555--5--555--5--5--3--|
D|-33333--3--333--3--3--1-|--33333--3--333--3--3--1--|

'Not even..'   '..crossroads..'  '..to choose from..'
D|------------------------|--------------------------|
A|------------------------|--------------------------|
F|------------------------|-3---8---3----------------|
C|-------------------5--3-|-3---8---3--3-------------|
G|-55555--5--555--5--5--3-|-1---6---1--3-------------|
D|-33333--3--333--3--3--1-|------------1-------------|

'All the..'  '..blood red..'  '..carpets before me..'
D|------------------------|--------------------------|
A|------------------------|--------------------------|
F|------------------------|--------------------------|
C|-------------------5--3-|--5-----------------5--3--|
G|-55555--5--555--5--5--3-|--55555--5--555--5--5--3--|
D|-33333--3--333--3--3--1-|--33333--3--333--3--3--1--|

'Behold this fair creation of god..'
D|------------------------|--------------------------|
A|------------------------|--------------------------|
F|------------------------|-3---8---3----------------|
C|-------------------5--3-|-3---8---3--3-------------|
G|-55555--5--555--5--5--3-|-1---6---1--3-------------|
D|-33333--3--333--3--3--1-|------------1-------------|


'My only wish..'
D|---------------------------------------------------|
A|---------------------------------------------------|
F|--5~-----------------------------------------------|
C|--5~-----------------------------------------------|
G|--3~-----------------------------------------------|
D|---------------------------------------------------|

'..all the days..'

D|---------------------------------------------------|
A|---------------------------------------------------|
F|---------------------------------------------------|
C|--5~-----------------------------------------------|
G|--5~-----------------------------------------------|
D|--3~-----------------------------------------------|

'..earth..'
D|---------------------------------------------------|
A|---------------------------------------------------|
F|---------------------------------------------------|
C|---------------------------------------------------|
G|--3-//Tremelo picked//-----------------------------|
D|---------------------------------------------------|

'..my kingdom come...'
D|---------------------------------------------------|
A|---------------------------------------------------|
F|---------------------------------------------------|
C|-----------------------------3---------------------|
G|-----------------------------3---------------------|
D|--3-//Tremelo picked//-------1---------------------|


Marcos second verse

'The first rock..'              '.thrown again..'
D|------------------------|--------------------------|
A|------------------------|--------------------------|
F|------------------------|--------------------------|
C|-------------------2--0-|--2--------------------0--|
G|-22222--2--222--2--2--0-|--22222--2--222--2--2--0--|
D|-00000--0--000--0--0----|--00000--0--000--0--0-----|

'Welcome to hell little saint..'
D|------------------------|--------------------------|
A|------------------------|--------------------------|
F|------------------------|-----5-------5------------|
C|-------------------2--0-|-5---5---5---5------------|
G|-22222--2--222--2--2--0-|-5---3---5---7------------|
D|-00000--0--000--0--0----|-3-------3----------------|

'Mother gaia..'             '..in slaughter..'
D|------------------------|--------------------------|
A|------------------------|--------------------------|
F|------------------------|---------------------3----|
C|-------------------2--0-|--2-------------5----3----|
G|-22222--2--222--2--2--0-|--22222--2--22--5----1----|
D|-00000--0--000--0--0----|--00000--0--00--3---------|

'Welcome to paradise soldier..'
D|------------------------|--------------------------|
A|------------------------|--------------------------|
F|------------------------|-----5-------5------------|
C|-------------------2--0-|-5---5---7---5------------|
G|-22222--2--222--2--2--0-|-5---3---7---7------------|
D|-00000--0--000--0--0----|-3-------5----------------|

Tarjas third verse

'My first cry...'             '..never ending..'
D|------------------------|--------------------------|
A|------------------------|--------------------------|
F|------------------------|--------------------------|
C|-------------------5--3-|--5-----------------5--3--|
G|-55555--5--555--5--5--3-|--55555--5--555--5--5--3--|
D|-33333--3--333--3--3--1-|--33333--3--333--3--3--1--|

'All life is to fear for life..'
D|------------------------|--------------------------|
A|------------------------|--------------------------|
F|------------------------|-3---8---3----------------|
C|-------------------5--3-|-3---8---3--3-------------|
G|-55555--5--555--5--5--3-|-1---6---1--3-------------|
D|-33333--3--333--3--3--1-|------------1-------------|

'You fool..'                 '..you wonderer..'
D|------------------------|--------------------------|
A|------------------------|--------------------------|
F|------------------------|--------------------------|
C|-------------------5--3-|--5-----------------5--3--|
G|-55555--5--555--5--5--3-|--55555--5--555--5--5--3--|
D|-33333--3--333--3--3--1-|--33333--3--333--3--3--1--|

'You challenged the gods and lost..'
D|------------------------|--------------------------|
A|------------------------|--------------------------|
F|------------------------|-3---8---3----------------|
C|-------------------5--3-|-3---8---3--3-------------|
G|-55555--5--555--5--5--3-|-1---6---1--3-------------|
D|-33333--3--333--3--3--1-|------------1-------------|


Chorus(listen for timings)

'Save yourself a penny for the ferryman..'
D|---------------------------------------------------|
A|---------------------------------------------------|
F|---------------------------------------------------|
C|---------------------------------------------------|
G|--33333333333333333333311111111 4+-----------------|
D|---------------------------------------------------|

'Save yourself and let them suffer..'
D|---------------------------------------------------|
A|---------------------------------------------------|
F|---------------------------------------------------|
C|---------------------------------------------------|
G|--33333333333333333333311111111 4+-----------------|
D|---------------------------------------------------|

'In hope..'                  '..in love..'
D|------------------------|--------------------------|
A|------------------------|--------------------------|
F|------------------------|--------------------------|
C|-------------------5--3-|--5-----------------5--3--|
G|-55555--5--555--5--5--3-|--55555--5--555--5--5--3--|
D|-33333--3--333--3--3--1-|--33333--3--333--3--3--1--|

'This world aint ready for the ark..'
D|------------------------|--------------------------|
A|------------------------|--------------------------|
F|------------------------|--------------------------|
C|-------------------5--3-|--3-2~----------------2---|
G|-55555--5--555--5--5--3-|--1-0~----------------0---|
D|-33333--3--333--3--3--1-|--------------------------|

'Save yourself a penny for the ferryman..'
D|---------------------------------------------------|
A|---------------------------------------------------|
F|---------------------------------------------------|
C|---------------------------------------------------|
G|--33333333333333333333311111111 4+-----------------|
D|---------------------------------------------------|

'Save yourself and let them suffer..'
D|---------------------------------------------------|
A|---------------------------------------------------|
F|---------------------------------------------------|
C|---------------------------------------------------|
G|--33333333333333333333311111111 4+-----------------|
D|---------------------------------------------------|

'In hope..'                  '..in love..'
D|------------------------|--------------------------|
A|------------------------|--------------------------|
F|------------------------|--------------------------|
C|-------------------5--3-|--5-----------------5--3--|
G|-55555--5--555--5--5--3-|--55555--5--555--5--5--3--|
D|-33333--3--333--3--3--1-|--33333--3--333--3--3--1--|

'Mankind works in mysterious ways..'
D|------------------------|--------------------------|
A|------------------------|--------------------------|
F|------------------------|--------------------------|
C|-10-8~--------------8---|--3-2~----------------2---|
G|-8--6~--------------6---|--1-0~----------------0---|
D|------------------------|--------------------------|

Bridge(not sure about this part)

Keyboard solo


D|---------------------------------------------------|
A|---------------------------------------------------|
F|---------------------------------------------------|
C|---------------------------------------------------|
G|--3-//Tremelo picked//-----------------------------|
D|---------------------------------------------------|


D|---------------------------------------------------|
A|---------------------------------------------------|
F|---------------------------------------------------|
C|---------------------------------------------------|
G|---------------------------------------------------|
D|--3-//Tremelo picked//-----------------------------|


D|---------------------------------------------------|
A|---------------------------------------------------|
F|---------------------------------------------------|
C|---------------------------------------------------|
G|--3-//Tremelo picked//-----------------------------|
D|---------------------------------------------------|

D|---------------------------------------------------|
A|---------------------------------------------------|
F|---------------------------------------------------|
C|--3~-----------------------------------------------|
G|--1~--------------------3~-------------------------|
D|------------------------1~-------------------------|

D|---------------------------------------------------|
A|---------------------------------------------------|
F|---------------------------------------------------|
C|---------------------------------------------------|
G|--3-//Tremelo picked//-----------------------------|
D|---------------------------------------------------|


D|---------------------------------------------------|
A|---------------------------------------------------|
F|---------------------------------------------------|
C|---------------------------------------------------|
G|---------------------------------------------------|
D|--3-//Tremelo picked//-----------------------------|


D|---------------------------------------------------|
A|---------------------------------------------------|
F|---------------------------------------------------|
C|---------------------------------------------------|
G|--3-//Tremelo picked//-----------------------------|
D|---------------------------------------------------|

D|---------------------------------------------------|
A|---------------------------------------------------|
F|---------------------------------------------------|
C|--3~-----------------------------------------------|
G|--1~--------------------3~-------------------------|
D|------------------------1~-------------------------|

Second bridge

D|---------------------------------------------------|
A|---------------------------------------------------|
F|---------------------------------------------------|
C|---------------------------------------------------|
G|-----------5-6-5-6---------------------------------|
D|-33333--33---------431-134-434---------------------|

D|---------------------------------------------------|
A|---------------------------------------------------|
F|---------------------------------------------------|
C|---------------------3-----------------------------|
G|-----------5-6-5-6-------6---5-6-5-6---------------|
D|-33333--33-------------3---3-----------------------|

D|---------------------------------------------------|
A|---------------------------------------------------|
F|---------------------------------------------------|
C|---------------------------------------------------|
G|-----------5-6-5-6---------------------------------|
D|-33333--33---------431-134-434+--------------------|

D|---------------------------------------------------|
A|---------------------------------------------------|
F|---------------------------------------------------|
C|---------------------3-----------------------------|
G|-----------5-6-5-6-------6---5-6-5-6---------------|
D|-33333--33-------------3---3-----------------------|


And the Chorus again.

After the chorus PM the F until it ends, then end on a F5 chord.

Pinch harmonic = +
Let ring = ~
Related for Planet Hell tab