Song name
# A B C D E F G H I J K L M N O P Q R S T U V W X Y Z

Nightwish - For The Heart I Once Had tab

           

           Nightwish- For The Heart I once Had (intro)



E -------------------------------------------------------------------------|
B -------------------------------------------------------------------------|
G -15-14-15----------------------------------------------------------------|
D ----------12~--12-12-13-13-15-15~-13-12-13-12--------12------------------|
A ---------------------------------------------15~--15----15-13~-----------|
D -------------------------------------------------------------------------|


E -------------------------------------------------------------------------|
B -------------------------------------------------------------------------|
G -15-14-15----------------------------------------------------------------|
D ----------12~--12-12-13-13-15-15~--12-15-17~--17-15----------------------|
A ----------------------------------------------------17-15~---------------|
D -------------------------------------------------------------------------|


E -------------------------------------------------------------------------|
B -------------------------------------------------------------------------|
G -15-14-15----------------------------------------------------------------|
D ----------12~--12-12-13-13-15-15~-13-12-13-12--------12------------------|
A ---------------------------------------------15~--15----15-13~-----------|
D -------------------------------------------------------------------------|


E -------------------------------------------------------------------------|
B -------------------------------------------------------------------------|
G -15-14-15----------------------------------------15-15-17-17~------------|
D ----------12~--12-12-13-13-15-15~--12-15-17~--17-------------------------|
A -------------------------------------------------------------------------|
D -------------------------------------------------------------------------|
Tap to rate this tab
 
# A B C D E F G H I J K L M N O P Q R S T U V W X Y Z