Song name
# A B C D E F G H I J K L M N O P Q R S T U V W X Y Z

Nihilism - Nihilism tab

Nihilism
nihilism
Buster, punkingonuts@aol.com

|--------------------------|
|--------------------------|
|--------------------------|
|--3-2-------2------3-2----|
|3------3-2-------3-----3-0|
|--------------------------|

|----------------------------|
|----------------------------|
|----------------------------|
|--3-2-----2-----3-2---------|
|3-----3-2-----3-----3-0---3-|
|------------------------3---|

|-----------------------------------------|
|-----------------------------------------|
|-----------------------------------------|
|4-4-4-0-4-5-4-4-4-0-4-3--4-4-4-0-4-5-0--0|
|2-2-2-0-2-3-2-2-2-0-2-1--2-2-2-0-2-3-0---|
|-----------------------------------------|
Tap to rate this tab
# A B C D E F G H I J K L M N O P Q R S T U V W X Y Z