Song name
# A B C D E F G H I J K L M N O P Q R S T U V W X Y Z

Nihilist - Hessian Mercenary tab

Hessian Mercenary - Nihilist Intro Tab
Tuning: Half Step Down/Full Step Down
My second nihilist tab: Great band; great song
Isn't 100% correct but only tab on the web so you'll have to do it with this
Did just the intro, working on the rest
|-------------------------------------------------------|
|-------------------------------------------------------|
|-------------------------------------------------------|
|----57---------5---------6*-------------5--7--8--7-----|
|----45--0-0-0--4--0-0-0-----0--5--7--8-----------------|
|-------------------------------------------------------|
         [P.M.]    [P.M.] H  [    P    .    M    .    ]

|-------------------------------------------------------|
|-------------------------------------------------------|
|-------------------------------------------------------|
|---------------5---------6*----5----4----2-------------|
|----4/5-0-0-0--4--0-0-0--------3----2----1-------------|
|-------------------------------------------------------|
         [P.M.]    [P.M.] H



|-------------------------------------------------------|
|-------------------------------------------------------|
|-------------------------------------------------------|
|-------------------------------------------------------|
|------8--7--5--4---------------------------------------|
|------------------8--7--5--4---------------------------|

|-------------------------------------------------------|
|-------------------------------------------------------|
|-------------------------------------------------------|
|---6------6------6----------5-7-8-7--------------------|
|---4-0000-4-0000-4----5-7-8----------------------------|
|-------------------------------------------------------|
     [P.M.] [P.M.]

|-------------------------------------------------------|
|-------------------------------------------------------|
|-------------------------------------------------------|
|---6------6------6---------7--5------------------------|
|---4-0000-4-0000-4----6----5--3------------------------|
|-------------------------------------------------------|
     [P.M.] [P.M.]

|-------------------------------------------------------|
|-------------------------------------------------------|
|-------------------------------------------------------|
|---6------6------6----------5-7-8-7--------------------|
|---4-0000-4-0000-4----5-7-8----------------------------|
|-------------------------------------------------------|
     [P.M.] [P.M.]



|-------------------------------------------------------|
|-------------------------------------------------------|
|-------------------------------------------------------|
|----6-------------5----------------5-4-----------------|
|----4-444-444-444-3-333-333-333--------5---------------|
|-------------------------------------------------------|
       [ P . M .]    [ P . M . ]
Tap to rate this tab
 
# A B C D E F G H I J K L M N O P Q R S T U V W X Y Z