Song name
# A B C D E F G H I J K L M N O P Q R S T U V W X Y Z

Nik And Jay - Tag Mig Tilbage chords

Highlighted       Show chord diagrams
Intro:
E---Fm#-----------------Fm#-< chords you can play--|
a--------------------------------------------------|
d---4-------------------44-------------------------|
g---2--2---2---2--------22--2---2---2--------------|
h---2---2-2---2---------22---2-2---2---------------|
e---2----2---2----22----22----2---2---22-----------|

E Fm#--E------------------E---------------E-|
a-------------------------------------------|
d-4---2------------------22---------------2-|
g-2---1--1---1---1-------11--1---1---0----1-|
h-2---0---0-0---0--------00---0-0---0-----0-|
e-2---0----0---0---00----00----0---0---00-0-|

The rest of the song is just: Fm# E Fm# E

Fm#
Tilbage i dagene hang vi altid ud på bymidten
Der var intet at lave, men der var altid ild i den
E
For forstadslivet var en privat fest og
Scor en tøs, slå dig løs videre til den næste
Fm#
Med ghettoblaster og Everlast og Eastpack tasker
Man prøvede at se godt ud selvom man ledte efter flasker
E...

(Chorus)
Fm#
Tag mig tilbage alting var så let
Fm#
Tag mig tilbage alting var så nyt
E
Tag mig tilbage alting var så vildt
                                                                                 Fm#
Tilbage til dengang hvor vi var så frie og hvor vi
Fyrede den af og vi gjorde hvad vi ville
                                                       E
Vi, vi var så ligeglade med det hele
Og vi…
glemmer det aldrig
                                                  Fm#
Så tro mig når jeg si'r dig at vi
Fyrede den af og vi gjorde hvad vi ville
                                                       E
Vi, vi var så ligeglade med det hele
Og vi…
glemmer det aldrig
Så tro mig når jeg si'r dig at

(C-Part)
Fm#
Tag mig tilbage til dengang hvor alt var let, og
Tilbage til dengang hvor alt var nyt, og
                                                                  E
Tilbage til dengang hvor alt føltes så vildt
Tag mig tilbage nu
Tap to rate this tab
# A B C D E F G H I J K L M N O P Q R S T U V W X Y Z