Song name
# A B C D E F G H I J K L M N O P Q R S T U V W X Y Z

Nik Kershaw - Wouldnt It Be Good tab

----------------------------------------------------------------------------
			     Wouldn't It Be Good - Nik Kershaw
----------------------------------------------------------------------------
Tabbed by: Daniel Wirth
Email:

Tuning: Normal tuning

This are the tabs for the melody and the chords you had to strumm in the chorus

Melody:
e|--------------------------------------------------------------------------|
B|---5-6-5------------------5-6-5-------------5--5-6-5----------------------|
G|---------5-7--5-5---------------5-7--5-5-5-----------5-7--5-5-------------|
D|------------------7-7-5---------------------------------------7-7-5--5----|
A|-----------------------------------------------------------------------8-8|
E|--------------------------------------------------------------------------|

The Chords in the Chorus are:

   A#   |   Gm   |    C    |     F                 
|-6-|   |-3-|   |-0-|   |-1-|            
|-6-|   |-3-|   |-1-|   |-1-|
|-7-|   |-3-|   |-0-|   |-2-|
|-8-|   |-5-|   |-2-|   |-3-|
|-8-|   |-5-|   |-3-|   |-3-|
|-6-|   |-3-|   |-x-|   |-1-|

You start with the A# after  "Wouldn't It be" .
This means when he sings "good" you start.
Tap to rate this tab
# A B C D E F G H I J K L M N O P Q R S T U V W X Y Z