Song name
# A B C D E F G H I J K L M N O P Q R S T U V W X Y Z

Nik Kershaw - The Riddle tab

Nik Kershaw
The riddle intro
Tabbed By Mad Mart


e|-----------7----------------------|
A|-7-9-10-10---10-9-7----5--77------|
D|--------------------77------------|
G|----------------------------------|
B|----------------------------------|
E|----------------------------------|--
                                      |--- Repeat these twice
e|-----------7----------------------| |
A|-7-9-10-10---10-9-7---5-5---------|--
D|--------------------7------77-----|
G|----------------------------------|
B|----------------------------------|
E|----------------------------------|


e|-9-12-10-9------------------------|
B|-----------12-10-7---9------------|
G|-------------------9--------------|
D|----------------------------------|
A|----------------------------------|
E|----------------------------------|








Tap to rate this tab
# A B C D E F G H I J K L M N O P Q R S T U V W X Y Z