Song name
# A B C D E F G H I J K L M N O P Q R S T U V W X Y Z

Nikita Koshkin - The Princes Toys - The Doll With Blinking Eyes tab

DOLL WITH CLOSING EYES - by Nikita Koshkin
(The Doll With Blinking Eyes)

Transcribed by Reiz Evans

  Q=56
  6/8

|-1--1-3-4-3-|-1--1-3-4-3-|-0-0-------------|-0-0----------|
|------------|------------|-----3-1-0-0-1-3-|-----3-1-0----|
|------------|------------|-2---------------|-2------------|
|-2--2-4-5-4-|-2--2-4-5-4-|-3-3-2-0-----0-2-|-3-3-2-0------|
|-0--0-2-3-2-|-0--0-2-3-2-|-0-------3-3-----|-0-------3----|
|------------|------------|-----------------|--------------|


|-1--1-3-4-3-|-1--1-3-4-3-|-0-0-------------|-0-0----------|
|-1--1-0---0-|-1--1-0---0-|-----3-1-0-0-1-3-|-----3-1-0--1-|
|--------2---|--------2---|-2---------------|-2----------3-|
|-2--2-4---4-|-2--2-4---4-|-3-3-2-0-----0-2-|-3-3-2-0----3-|
|-0--0---3---|-0--0---3---|-0-------3-3-----|-0-------3----|
|------0-1-0-|------0-1-0-|-----------------|--------------|

 4/4
|--------------|--------------|----------------|------------------|
|-----------1--|-----------1--|-----------5s10-|-10---------10s8--|
|-2---------3--|-2---------3--|-2--------------|------------------|
|-2---------3--|-2---------3--|-2---------3----|--9----------9s7--|
|-0------------|-0------------|-0--------------|--0---------------|
|----0-x-x-----|----0-x-x-----|----0-x-x-------|-----0-x-x--------|


|---------------|---------------|------------------|------------------|
|-8---------8s6-|-6---------6s5-|-5------(5)-5-3-1-|-0------(0)-0-1-3-|
|---------------|---------------|------------------|------------------|
|-7---------7s5-|-5---------5s3-|-3------(3)-3-2-0-|--------------0-2-|
|-0-------------|-0-------------|-0----------------|-3------(3)-3-----|
|----0-x-x------|----0-x-x------|----0-x--x--------|----0-x--x--------|


|------------------|--------------|----------------|-----------------|
|-5------(5)-5-3-1-|-0---------1--|-----------5s10-|-10---------10s8-|
|------------------|-----------3--|-2--------------|-----------------|
|-3------(3)-3-2-0-|-----------3--|-2---------3----|--9----------9s7-|
|-0----------------|-3------------|-0--------------|--0--------------|
|----0-x--x--------|----0-x-x-----|----0-x-x-------|-----0-x-x-------|


|---------------|-------------------|------------------|------------------|
|-8---------8s6-|-6S13S12S10S6S10---|-9------(9)-9-7-5-|-3------(3)-3-5S7-|
|---------------|-------------------|------------------|------------------|
|-7---------7s5-|-5S12S10S=9S5S=9---|-7------(7)-7-5-3-|-1------(1)-1-3S5-|
|-0-------------|-------------------|-0----------------|-0----------------|
|----0-x-x------|-0-----------------|----0-x--x--------|----0-x--x--------|


|------------------|--------------|--------------|--------------|
|-9------(9)-5-3-1-|-0---------1--|-----------1--|--------------|
|------------------|-----------3--|-2---------3--|-2------------|
|-7------(7)-3-2-0-|-----------3--|-2---------3--|-2---------2--|
|-0----------------|-3------------|-0------------|-0------------|
|----0-x--x--------|----0-x-x-----|----0-x-x-----|----0-x-x-----|


  Q=65
|-------------------------|---------------0-1-3p1-0-|
|-------1-----------------|---------0-1-3-----------|
|-2-0-2---2-0-3p2-0---0---|-----0-2-----------------|
|-2-----3-----0-----3---0-|-2h3---------3-----2-----|
|-0-----------------------|-0-----------------------|
|-------------------0-----|-------------------------|


|-5h6-6-6p5-5-5p0-0-3-2-1-|-0-5-4-5-0---0-----------|
|-------------------------|-----------4---0---------|
|-------------------------|-----------------5-------|
|-------------------------|-------------------6h7---|
|-0-----------------------|-0-----------3---------6-|
|-------------3-----0-----|-------------------------|


|---------------1-3-4-----|-----------------0-1-3-5-|
|-3-------3-2---------4---|-----------1---4---------|
|-------------3---------3-|-----0-1-3---0-----------|
|---3-2-3-----------3-----|-2-3---------------------|
|-0-----------------------|-0-----------0-----------|
|-------------------------|-------------------------|


|-6-5-3---0---------------|-----0-----5p4-------------|
|-6-----6---3-1-----------|-------4-------------------|
|---------------3-2-----1-|-(1)-----3-----2-----------|
|-0-----------1-----0h2---|-----------------2p1-2-----|
|-0-----------------------|--0--------------------3-0-|
|-------------1-----------|---------------------------|


|---------1-0-1-4-3-8-7-6-|-5-------------------------|
|---3-2-3-----------------|---5-4-5-------------------|
|-3-----------------------|---------5-0--2------------|
|-0-----------0-----------|-----------------2p1-2-----|
|-1-----------------7-----|-0-----------(0)-------3-0-|
|-------------------------|---------------------------|


|-------------------------|---0----11h12-12---------------|
|-3-----------------------|-----10----------9h10-10-------|
|-------------------3p2-3-|-2-----------------------8h9-9-|
|-3-----0---0-3p2-3-------|-2-----------------------------|
|-1p0-1---4---5-----------|-0-----------------------------|
|-------------------4-----|-------------------------------|

                            <
|-------------------------|-----------0-----5-5h6-8-|
|-5-6-8-5-----------------|---------3---6-8---------|
|---------6-0-5-0-5-3-2-1-|---2-3-5-----------------|
|-------------------------|-2-----------------------|
|-0-----7-----6-----------|-0-----------------0-----|
|-------------------1-----|-------------------------|


|-9-8-9-6-5-6-8-7-8-------|-5-4-5-3-----------------|
|-------------------8-7-8-|---------5-3-1-----------|
|-------------------------|---------------3-2-----1-|
|-8-----5-----7-----------|-------------1-----1h2---|
|-------------------7-----|-0-----------------------|
|-------------------------|-------------1-----------|

                              3/2
|-------0---------0-0---0-0-||---0-0---0-0---0-0---0-0---0-0---0-0-|
|-----4---------------4-----||-------4-----------4-----------4-----|
|-(1)-----2-----------------||-2-----------3-----------5-----------|
|-----------2p1-------------||-0-----------3-----------5-----------|
|--0------------0-----------||-3-----------5-----------6-----------|
|---------------------------||-1-----------0-----------4-----------|

 4/4                              3/2
|---0----11h12-12---------------||---0-0---0-0---0-0---0-0---0-0---0-0-|
|-----10----------9h10-10-------||-------4-----------4-----------4-----|
|-2-----------------------8h9-9-||-2-----------3-----------5-----------|
|-2-----------------------------||-0-----------3-----------5-----------|
|-0-----------------------------||-3-----------5-----------6-----------|
|-------------------------------||-1-----------0-----------4-----------|

 4/4
|---0----11h12-12---------------|---0-0---0-0---0-0---0-0-|
|-----10----------9h10-10-------|-0-----4-----------4-----|
|-2-----------------------8h9-9-|-2-----------1-----------|
|-2-----------------------------|-0-----------1-----------|
|-0-----------------------------|-------------2-----------|
|-------------------------------|-3-----------2-----------|


|---0----11h12-12---------------|---0-0---0-0---0-0---0-0-|
|-----10----------9h10-10-------|-0-----4-----------4-----|
|-2-----------------------8h9-9-|-2-----------1-----------|
|-2-----------------------------|-0-----------1-----------|
|-0-----------------------------|-------------2-----------|
|-------------------------------|-3-----------2-----------|


|---0----11h12-12---------------|---------0-0-------------|
|-----10----------9h10-10-------|-------4-----------------|
|-2-----------------------8h9-8-|-----2-------1h2-2-------|
|-2-----------------------------|---2---------------1h2-2-|
|-0-----------------------------|-0-----------------------|
|-------------------------------|-------------------------|


|-------------------------|-------------------------|--------------------------|
|-------------------------|-------------------------|--------------------------|
|-------------------------|-------------------------|-0-------0---6------------|
|-------------------------|-------------6-----------|-----6--------------------|
|-0---0---0---0---0---0---|-0---0---0---0---0---0---|-0---0---0---0---0---0----|
|---5---5---5---5---5---5-|---5---5---5---5---5---5-|---5---5---5---5---5---5--|
|
|
|-------------------------|-------------------------|--------------------------|
|-------------------------|-------------------------|--------------------------|
|-------------------------|-------------------------|--------------------------|
|-------------------------|-------------------------|--------------------------|
|-------------------------|-------------------------|--------------------------|
|---5---5---5---5---5---5-|---5---5---5---5---5---5-|---5---5---5---5---5---5--|


|-------------------------|-------------------------|
|-------------------------|-------------------------|
|-5-----------5---0---5---|-6-----------5-----------|
|-------------------------|-------------------------|
|-0---0---0---0---0---0---|-0---0---0---0---0---0---|
|---5---5---5---5---5---5-|---5---5---5---5---5---5-|
|
|-------------------------|-------------------------|
|-------------------------|-------------------------|
|-------------------------|-------------------------|
|-------------------------|-------------------------|
|-------------------------|-------------------------|
|---5---5---5---5---5---5-|---5---5---5---5---5---5-|


|----------------------------|---------------------------|
|-------6-------7---6--------|---------------------------|
|-(5)-------5-----------5----|-6-----------(6)---0-------|
|----------------------------|-----------------------6---|
|--0----0---0---0---0---0----|-0---0---0----0----0---0---|
|-----5---5---5---5---5---5--|---5---5---5-----5---5---5-|
|
|----------------------------|---------------------------|
|----------------------------|---------------------------|
|----------------------------|---------------------------|
|----------------------------|---------------------------|
|----------------------------|---------------------------|
|-----5---5---5---5---5---5--|---5---5---5-----5---5---5-|


|---------------------0---|-------------0------------|
|-------------------------|--------------------------|
|-6-----------0-----------|-8------------------------|
|-------------------------|--------------------------|
|-0---0---0---0---0---0---|-0---0---0---0---0---0----|
|---5---5---5---5---5---5-|---5---5---5---5---5---5--|
|
|-------------------------|--------------------------|
|-------------------------|--------------------------|
|-------------------------|--------------------------|
|-------------------------|--------------------------|
|-------------------------|--------------------------|
|---5---5---5---5---5---5-|---5---5---5---5---5---5--|


|-(0)-----------------------|-------------------------|
|-------0---6---7-----------|-------------------------|
|---------------------------|-6---0-------------------|
|---------------------------|---------8---7-----------|
|--0----0---0---0---0---0---|-0---0---0---0---0---0---|
|-----5---5---5---5---5---5-|---5---5---5---5---5---5-|
|
|---------------------------|-------------------------|
|---------------------------|-------------------------|
|---------------------------|-------------------------|
|---------------------------|-------------------------|
|---------------------------|-------------------------|
|-----5---5---5---5---5---5-|---5---5---5---5---5---5-|


|----------------------------|
|----------------------------|
|-----------6---5------------|
|-(7)---6--------------------|
|--0----0---0---0---0---0----|
|-----5---5---5---5---5---5--|
|
|----------------------------|
|----------------------------|
|----------------------------|
|----------------------------|
|----------------------------|
|-----5---5---5---5---5---5--|


|-------------------------|---------------------------|
|-------------------------|---------------------------|
|-------------------------|-------0-----------6-------|
|-6---0---8---7-----------|-(7)-------8---6-------6---|
|-0---0---0---0---0---0---|--0----0---0---0---0---0---|
|---5---5---5---5---5---5-|-----5---5---5---5---5---5-|
|
|-------------------------|---------------------------|
|-------------------------|---------------------------|
|-------------------------|---------------------------|
|-------------------------|---------------------------|
|-------------------------|---------------------------|
|---5---5---5---5---5---5-|-----5---5---5---5---5---5-|


|----------------------------|
|----------------------------|
|-------------------0--------|
|-7-----------(7)-------8----|
|-0---0---0----0----0---0----|
|---5---5---5-----5---5---5--|
|
|----------------------------|
|----------------------------|
|----------------------------|
|----------------------------|
|----------------------------|
|---5---5---5-----5---5---5--|


|---------------------------|-------------------------|
|---------------------------|-------------------------|
|-------------------0-------|-------------------------|
|-7-----------(7)-------8---|-7-----------------------|
|-0---0---0----0----0---0---|-0---0---0---0---0---0---|
|---5---5---5-----5---5---5-|---5---5---5---5---5---5-|
|
|---------------------------|-------------------------|
|---------------------------|-------------------------|
|---------------------------|-------------------------|
|---------------------------|-------------------------|
|---------------------------|-------------------------|
|---5---5---5-----5---5---5-|---5---5---5---5---5---5-|


|-------------------------|---------------|
|-------------------------|---------------|
|-------------------------|---------------|
|-8-----------------------|-(8)-----------|
|-0---0---0---0---0---0---|--0-------<7>--|
|---5---5---5---5---5---5-|---------------|
|
|-------------------------|---------------|
|-------------------------|---------------|
|-------------------------|---------------|
|-------------------------|---------------|
|-------------------------|---------------|
|---5---5---5---5---5---5-|---------------|


|----------------------|-----------<5>-------|
|----------------------|-------<4>-------<7>-|
|----------------<12>--|---------------------|
|-<7>-------<7>--------|---------------------|
|-------<7>------------|-<7>-----------------|
|----------------------|---------------------|


|----------------------|-------------|
|----------------------|-------------|
|-<5>-------<12>-------|--------2----|
|----------------------|-<7>----0----|
|-(7)------------------|--------3----|
|-------<9>--------<4>-|--------1----|


|-----------|-------------------------|-------------|----------------------|
|-----------|-------------------------|-------------|----------------------|
|-3----5----|-------------------------|-------------|----------------<12>--|
|-3----5----|-7-x-7-x-7-x-7-x-7-x-7-x-|-7-----------|-<7>-------<7>--------|
|-5----6----|-0---0---0---0---0---0---|-0------<7>--|-------<7>------------|
|-3----4----|-5---5---5---5---5---5---|-5-----------|----------------------|


|-----------<5>-------|----------------------|-------------|-----------|
|-------<4>-------<7>-|----------------------|-------------|-----------|
|---------------------|-<5>-------<12>-------|--------2----|-3----5----|
|---------------------|----------------------|-<7>----0----|-3----5----|
|-<7>-----------------|-(7)------------------|--------3----|-5----6----|
|---------------------|-------<9>--------<4>-|--------1----|-3----4----|

                           6/4                      4/4
|-------------------------|------------------------|---------<7>--(<7>)---|
|-------------------------|------------------------|---------<7>--(<7>)---|
|-------------------------|------------------------|---------<5>----------|
|-7-x-7-x-7-x-7-x-7-x-7-x-|-7----------------------|---------------<5>----|
|-0---0---0---0---0---0---|-0-----------<7>--------|-<12>-----------------|
|-5---5---5---5---5---5---|-5-------<7>-------<12>-|----------------------|


|-<12>------------------|---------<7>--(<7>)--|
|-<12>------------------|---------<7>--(<7>)--|
|-----------------------|---------<5>---------|
|-----------------------|---------------<5>---|
|--<9>-------<7>--------|-<12>----------------|
|--------<7>-------<12>-|---------------------|


|-<12>----<7>--(<7>)--|-<12>----<7>--(<7>)--|
|-<12>----<7>--(<7>)--|-<12>----<7>--(<7>)--|
|---------<5>---------|---------<5>---------|
|---------------<5>---|---------------<5>---|
|--<9>----------------|--<9>----------------|
|---------------------|---------------------|


|-<12>----(<12>)----|-<12>----(<12>)----|-<12>-----|
|-<12>----(<12>)----|-<12>----(<12>)----|-<12>-----|
|-------------------|-------------------|----------|
|-----------<7>-----|-----------<7>-----|-(<7>)----|
|--<9>--------------|--<9>--------------|--<9>-----|
|-------------------|-------------------|----------|


|-------------------------|-------------------------|------*|
|-------------------------|-------------------------|------*|
|-------------------------|-------------------------|------*|
|-7-x-7-x-7-x-7-x-7-x-7-x-|-7-x-7-x-7-x-7-x-7-x-7-x-|-7----*|
|-0---0---0---0---0---0---|-0---0---0---0---0---0---|-0----*|
|-5---5---5---5---5---5---|-5---5---5---5---5---5---|-5----*|



***************************************************
* Generated using Power Tab Editor by Brad Larsen *
* http://powertab.guitarnetwork.org               *
***************************************************
Tap to rate this tab
# A B C D E F G H I J K L M N O P Q R S T U V W X Y Z