Song name
# A B C D E F G H I J K L M N O P Q R S T U V W X Y Z

Nikita Koshkin - Six Cordes - 6 La Grande Parade Du Cirque The Great Circus Parade tab

Six Cordes - 6. La Grande Parade du Cirque (The Great Circus Parade)
- Nikita Koshkin

as recorded by Nikita Koshkin
transcribed by Jordan Astridge, August 2004
elcheimuse@hotmail.com

h - hammer-on
<12> - natural harmonic on 12th fret
p - pull-off
< - accented note
S= - slide


tuning - E A D G B E

timimg - 4/4  Allegretto


|-12h13-12-0-12---------------|-------0-<12>-------|-----------------|
|-----------------6h7-6-0-6---|--------------------|-2-------2---3---|
|-----------------------------|-----9----------2h4-|-----5-----------|
|-----------------------------|--------------------|---2---2---2---2-|
|-----------------------------|---7----------------|-0-------0-------|
|-----------------------------|-0------------------|-----0-------0---|


|-------------------|-----------------|-----------------|
|-4h5-----4h5-------|-2-------2---3---|-4h5-----4h5-----|
|---------------2h4-|-----5-----------|-----------------|
|-----2-------2-----|---2---2---2---2-|-----2-------2---|
|-0-------0---------|-0-------0-------|-0-------0-------|
|-----0-------0-----|-----0-------0---|-----0-------0---|


|-----------------|-----------------|-----------------|----------------5h7-|
|-3-3-3-5-6-6-5-3-|-2---------------|-0-0-0-2-3-3-2-0-|-2------------------|
|-3-3-3-5-6-6-5-3-|-2---------------|-0-0-0-2-3-3-2-0-|-2------------------|
|-----------------|---2---2---2---2-|-----------------|----2---2---2-------|
|-0-------0-------|-0-------0-------|-0-------0-------|-0--------0---------|
|-----0-------0---|-----0-------0---|-----0-------0---|------0-------0-----|


|-9-0-8-0-9-0-10-0-|-11-12-12p0---11-12-12p0-5h7-|-9-0-8-0-9-0-10-0-|
|------------------|-----------------------------|------------------|
|------------------|-----------------------------|------------------|
|------------------|-----------------------------|------------------|
|-0-------0--------|--0------------0-------------|-0-------0--------|
|-----0--------0---|----------0------------0-----|-----0--------0---|


|-11-12-12p0---11-12-12p0---|-7-7-7-8-9-9-8-7-|-5---------------|
|---------------------------|-----------------|---5---5---5---5-|
|---------------------------|-7-7-7-8-9-9-8-7-|-6---------------|
|---------------------------|-----------------|-----------------|
|--0------------0-----------|-0-------0-------|-0-------0-------|
|----------0------------0---|-----0-------0---|-----0-------0---|


|-7-7-12-10--9-8-7-6-|-5-(5)-(5)-(5)---------|-3---0---3---0---|
|--------------------|----5--(5)-------------|-----------------|
|-7-7-12-11-10-9-8-7-|-6----------8--7-6-5-4-|-3---0---3---0---|
|--------------------|-----------------------|-----------------|
|-0----------0-------|-0-------------0-------|-------0-------0-|
|------0---------0---|--------0----------0---|---0-------0-----|


|-3-4-3-0-3---0---|-6---0---6---0---|-6-7-6-0-6---0---|
|-----------------|-----------------|-----------------|
|-3-4-3-0-3---0---|-6---0---6---0---|-6-7-6-0-6---0---|
|-----------------|-----------------|-----------------|
|---------------0-|-------0-------0-|---------------0-|
|-----------0-----|---0-------0-----|-----------0-----|


|-12-12---------13-13-|---------14---13---|-12------0---------|
|--9--9---5-5---10-10-|---6-6---11---10---|--9--------7---7---|
|-10-10---4-4---11-11-|---5-5---12---11---|-10--------6---6---|
|---------3-3---------|---4-4-------------|-----------5---5---|
|---------------------|-------------------|-------------------|
|-------0-----0-------|-0-----0----0----0-|-----0-0-----0---0-|


           <
|-0--------5p=0-6p0-7p0-8p0-|-9p0-0-0-8p0-0-0-9p0-0-0-10p0-0-0-|
|-0-------------------------|----------------------------------|
|---------------------------|----------------------------------|
|-3-------------------------|----------------------------------|
|---------------------------|-0---------------0----------------|
|---0-1-0-(0)---------------|---------0----------------0-------|


|-11h12-12-12-12p0---11h12-12-12-12p0-5h7-|-9p0-0-0-8p0-0-0-9p0-0-0-10p0-0-0-|
|-----------------------------------------|----------------------------------|
|-----------------------------------------|----------------------------------|
|-----------------------------------------|----------------------------------|
|--0------------------0-------------------|-0---------------0----------------|
|----------------0------------------0-----|---------0----------------0-------|


|-11h12-12-12-12p0---11h12-12-12-12p0---|-7p0-0-0-7p0-8p0-9p0-0-0-8p0-7p0-|
|---------------------------------------|---------------------------------|
|---------------------------------------|-7-------7---8---9-------8---7---|
|---------------------------------------|---------------------------------|
|--0------------------0-----------------|-0---------------0---------------|
|----------------0------------------0---|---------0---------------0-------|


|-5p0-0-0-----0-0-----0-0-----0-0-|-7-0-0-0-12-0-10-0--9-0-8-0-7-0-6-0--|
|---------4h5-----6p5-----3h5-----|-------------------------------------|
|-6-------------------------------|-7-------12---11---10---9---8---7----|
|---------------------------------|-------------------------------------|
|-0---------------0---------------|-0------------------0----------------|
|---------0---------------0-------|----------0-----------------0--------|


|-5p0-0-0-----0-0-----0-0-----0-0-|-5h6-0-0-8h9-0-0-11h12-0-0-13h14-0-0--|
|---------1h2-----4h5-----6h7-----|--------------------------------------|
|-6-------------------------------|--------------------------------------|
|---------------------------------|--------------------------------------|
|-0---------------0---------------|-0----------------0-------------------|
|---------0---------------0-------|---------0------------------0---------|


|-16h17-17-17-16h17-17-17-16h17-17-17-16h17-17-17-|-----17S=5------||
|-------------------------------------------------|----------------||
|-------------------------------------------------|----------------||
|-------------------------------------------------|----------------||
|--0-----------------------0----------------------|-0-------0------||
|--------------0-----------------------0----------|----------------||
Tap to rate this tab
# A B C D E F G H I J K L M N O P Q R S T U V W X Y Z