Song name
# A B C D E F G H I J K L M N O P Q R S T U V W X Y Z

Nikita Koshkin - The Porcelain Tower - Finale - Nephrite Emperor tab

Variations on a theme, "The Porcelain Tower" by Stepan Rak
FINALE: NEPHRITE EMPEROR
written by Nikita Koshkin, as recorded by Nikita Koshkin

transcribed by Eugene Kirpichov

 Adagio misterioso Q=70

 4/4
  --PM----------------------------------------------------------------|
  Q  Q  H       W             Q  Q  Q  E E   Q  Q  Q  Q    Q  Q  H
|-0-----------|-------------|--------------|-------------|-0-------------|
|-------------|-------------|-2--------0-2-|-3-----2-----|---------------|
|-------------|-------------|--------------|-------------|---------------|
|----2--------|----2--------|----2---------|----2--------|----2----------|
|-0-----0-----|-0-----0-----|-0-----0------|-0-----0-----|-0-----0-------|
|----------0--|----------0--|----------0---|----------0--|----------0----|
  Q  Q  Q  Q    Q  Q  Q  Q    Q  Q  Q  Q     Q  Q  Q  Q    Q  Q  Q  Q


  PM-|  PM PM   PM     PM PM PM
  Q  Q  Q  Q    T T E. Q  Q  Q
|----0--2--3--|-3p2p0--------0--|
|-------------|-----------------|
|-------------|-----------------|
|----2--------|--------2--------|
|-0-----0-----|-0---------0-----|
|----------0--|--------------0--|
  Q  Q  Q  Q    Q      Q  Q  Q


  PM     PM PM PM   PM     PM PM-|    PM PM PM PM
  T T E. Q  Q  Q    T T E. Q  H       Q  Q  Q  Q
|-4p3p0--------0--|-3p2p0-----------|-------------|
|-----------------|-----------------|----4--3--2--|
|-----------------|-----------------|-------------|
|--------3--------|--------2--------|----2--------|
|-0---------0-----|-0---------0-----|-0-----0-----|
|--------------0--|--------------0--|----------0--|
  Q      Q  Q  Q    Q      Q  Q  Q    Q  Q  Q  Q


  PM PM PM-|    PM PM PM-|    PM PM PM PM    PM PM PM-|    PM-------|
  Q  Q  H       Q  Q  H       Q  Q  Q  E E   Q  Q  H       W
|-------------|-------------|--------------|-------------|-------------|
|-1-----------|-2-----------|-1--------0-1-|-2--------2--|-------------|
|-------------|-------------|--------------|-------4-----|-4-----------|
|----1--------|----2--------|----1---------|----2--------|----2--------|
|-0-----0-----|-0-----0-----|-0-----0------|-0-----------|-------3--4--|
|----------0--|----------0--|----------0---|-------------|-------------|
  Q  Q  Q  Q    Q  Q  Q  Q    Q  Q  Q  Q     Q  Q  Q  Q    Q  Q  Q  Q


  PM------------------------------------------------------------------|
  Q  Q  Q  Q    Q  Q  Q  Q    Q  E E Q  E E   Q  E E Q  Q    Q  Q  H
|-------------|-------------|---------------|--------------|-------------|
|----2-----2--|----2-----2--|----2-2----2-2-|----2-2----2--|-------------|
|-------5-----|-4-----3-----|-2------5------|-4------3-----|-2-----------|
|-------------|-------------|---------------|--------------|-------------|
|-0-----------|-------------|-0-------------|--------------|-0-----0-----|
|-------------|-------0-----|---------------|--------0-----|----0-----0--|
  Q  Q  H       H     Q  Q    Q  Q   H        H      Q  Q    Q  Q  Q  Q


  Gtr I
   PM   PM   PM   PM     PM   PM   PM    PM
   Q    Q    Q    Q      Q    Q    Q     Q
|-(9)--(8)--(7)--(6)--|-(7)--(8)--(9)--(11)--|
|---------------------|----------------------|
|---------------------|----------------------|
|---------------------|----------------------|
|--0---------0--------|--0---------0---------|
|-------0---------0---|-------0----------0---|
|  Q    Q    Q    Q      Q    Q    Q     Q
|
| Gtr II
|  PM   PM   PM   PM     PM   PM   PM    PM
|  Q    Q    Q    Q      Q    Q    Q     Q
|-17---19---21---24---|-21---19---17----12---|
|---------------------|----------------------|
|---------------------|----------------------|
|---------------------|----------------------|
|--0---------0--------|--0---------0---------|
|-------0---------0---|-------0----------0---|
   Q    Q    Q    Q      Q    Q    Q     Q


   PM   PM   PM   PM     PM   PM   PM--|
   Q    Q    Q    Q      Q    Q    H
|-(9)--(8)--(7)--(6)--|-(7)--(8)--(9)-----|
|---------------------|-------------------|
|---------------------|-------------------|
|---------------------|-------------------|
|--0---------0--------|--0---------0------|
|-------0---------0---|-------0--------0--|
|  Q    Q    Q    Q      Q    Q    Q   Q
|
|  PM   PM   PM   PM     PM   PM   PM--|
|  Q    Q    Q    Q      Q    Q    H
|-17---19---21---24---|-21---19---17------|
|---------------------|-------------------|
|---------------------|-------------------|
|---------------------|-------------------|
|--0---------0--------|--0---------0------|
|-------0---------0---|-------0--------0--|
   Q    Q    Q    Q      Q    Q    Q   Q


   PM      PM   PM      PM     PM    PM    PM--|
   E   E   Q    E   E   Q      Q     Q     H
|-(5)-(5)-(6)--(7)-(7)-(8)--|-(9)--(11)--(13)-----|
|---------------------------|---------------------|
|---------------------------|---------------------|
|---------------------------|---------------------|
|--0------------0-----------|--0-----------0------|
|----------0------------0---|--------0---------0--|
|  Q       Q    Q       Q      Q     Q     Q   Q
|
|  PM      PM   PM      PM     PM    PM    PM--|
|  E   E   Q    E   E   Q      Q     Q     H
|-27--27--24---21--21--19---|-17----14----12------|
|---------------------------|---------------------|
|---------------------------|---------------------|
|---------------------------|---------------------|
|--0------------0-----------|--0-----------0------|
|----------0------------0---|--------0---------0--|
   Q       Q    Q       Q      Q     Q     Q   Q


   PM      PM   PM      PM     PM    PM       PM--|
   E   E   Q    E   E   Q      Q     E    E   H
|-(5)-(5)-(6)--(7)-(7)-(8)--|-(9)--(12)-(11)-(9)-----|
|---------------------------|------------------------|
|---------------------------|------------------------|
|---------------------------|------------------------|
|--0------------0-----------|--0--------------0------|
|----------0------------0---|--------0------------0--|
|  Q       Q    Q       Q      Q     Q        Q   Q
|
|  PM      PM   PM      PM     PM    PM       PM--|
|  E   E   Q    E   E   Q      Q     E    E   H
|-27--27--24---21--21--19---|-19----13---14--17------|
|---------------------------|------------------------|
|---------------------------|------------------------|
|---------------------------|------------------------|
|--0------------0-----------|--0--------------0------|
|----------0------------0---|--------0------------0--|
   Q       Q    Q       Q      Q     Q        Q   Q


   PM   PM   PM   PM     PM   PM   PM    PM
   Q    Q    Q    Q      Q    Q    Q     Q
|-(9)--(8)--(7)--(6)--|-(7)--(8)--(9)--(13)--|
|-(9)--(8)--(7)--(6)--|-(7)--(8)--(9)--(13)--|
|---------------------|----------------------|
|---------------------|----------------------|
|--0---------0--------|--0---------0---------|
|-------0---------0---|-------0----------0---|
|  Q    Q    Q    Q      Q    Q    Q     Q
|
|  PM   PM   PM   PM     PM   PM   PM    PM
|  Q    Q    Q    Q      Q    Q    Q     Q
|-17---19---21---24---|-21---19---17----12---|
|-17---19---21---24---|-21---19---17----12---|
|---------------------|----------------------|
|---------------------|----------------------|
|--0---------0--------|--0---------0---------|
|-------0---------0---|-------0----------0---|
   Q    Q    Q    Q      Q    Q    Q     Q


   PM   PM   PM   PM     PM   PM   PM--|
   Q    Q    Q    Q      Q    Q    H
|-(9)--(8)--(7)--(6)--|-(7)--(8)--(9)-----|
|-(9)--(8)--(7)--(6)--|-(7)--(8)--(9)-----|
|---------------------|-------------------|
|---------------------|-------------------|
|--0---------0--------|--0---------0------|
|-------0---------0---|-------0--------0--|
|  Q    Q    Q    Q      Q    Q    Q   Q
|
|  PM   PM   PM   PM     PM   PM   PM--|
|  Q    Q    Q    Q      Q    Q    H
|-17---19---21---24---|-21---19---17------|
|-17---19---21---24---|-21---19---17------|
|---------------------|-------------------|
|---------------------|-------------------|
|--0---------0--------|--0---------0------|
|-------0---------0---|-------0--------0--|
   Q    Q    Q    Q      Q    Q    Q   Q


   PM      PM   PM      PM     PM    PM    PM--|
   E   E   Q    E   E   Q      Q     Q     H
|-(5)-(5)-(6)--(7)-(7)-(8)--|-(9)--(11)--(13)-----|
|-(5)-(5)-(6)--(7)-(7)-(8)--|-(9)--(11)--(13)-----|
|---------------------------|---------------------|
|---------------------------|---------------------|
|--0------------0-----------|--0-----------0------|
|----------0------------0---|--------0---------0--|
|  Q       Q    Q       Q      Q     Q     Q   Q
|
|  PM      PM   PM      PM     PM    PM    PM--|
|  E   E   Q    E   E   Q      Q     Q     H
|-27--27--24---21--21--19---|-17----14----12------|
|-27--27--24---21--21--19---|-17----14----12------|
|---------------------------|---------------------|
|---------------------------|---------------------|
|--0------------0-----------|--0-----------0------|
|----------0------------0---|--------0---------0--|
   Q       Q    Q       Q      Q     Q     Q   Q


                          6/4
   PM   PM      PM   PM     PM      PM      PM  PM PM PM
   Q    E   E   Q    Q      E   E   E   E   Q   Q  Q  Q
|-(9)--(8)-(8)-(7)--(6)--|-(5)-(6)-(7)-(8)-(9)------------|
|-(9)--(8)-(8)-(7)--(6)--|-(5)-(6)-(7)-(8)-(9)------------|
|------------------------|--------------------------------|
|------------------------|--------------------------------|
|--0------------0--------|--0---------------0------0------|
|-------0------------0---|----------0-----------0-----0---|
|  Q    Q       Q    Q      Q       Q       Q   Q  Q  Q
|
|  PM   PM      PM   PM     PM      PM      PM--|  PM-|
|  Q    E   E   Q    Q      E   E   E   E   H      H
|-17---19--19--21---24---|-27--24--21--19--17-------------|
|-17---19--19--21---24---|-27--24--21--19--17-------------|
|------------------------|--------------------------------|
|------------------------|--------------------------------|
|--0------------0--------|--0---------------0------0------|
|-------0------------0---|----------0-----------0-----0---|
   Q    Q       Q    Q      Q       Q       Q   Q  Q  Q


 4/4
  Gtr I
  PM  PM  PM  PM    PM  PM  PM  PM    PM  PM PM-|
  E E E E E E E E   E E E E E E E E   E E Q  H
|-xSxSxSxSxSxSxSxS|=xSxSxSxSxSxSxSxS|=x------------|
|-----------------|-----------------|--------------|
|-----------------|-----------------|--------------|
|-----------------|-----------------|--------------|
|-0-------0-------|-0-------0-------|-0------0-----|
|-----0-------0---|-----0-------0---|-----0-----0--|
  Q   Q   Q   Q     Q   Q   Q   Q     Q   Q  Q  Q


  Gtr I
   PM-----|   PM     PM--|   PM-|     PM-|
   H.         Q     +H       H        W
|--9----------9--|--(9)------9-----|--9----------*|
|--9----------9--|--(9)------9-----|--9----------*|
|----------------|-----------------|-------------*|
|----------------|-----------------|-------------*|
|--0------0------|---0-------0-----|--0----------*|
|------0------0--|-------0------0--|-------------*|
|  Q   Q  Q   Q      Q   Q   Q  Q     Q  Q  H
|
| Gtr II
|  PM-----|   PM     PM--|   PM-|     PM
|  H.         Q     +H       H        W
|-17---------17--|-(17)-----17-----|-17----------*|
|-17---------17--|-(17)-----17-----|-17----------*|
|----------------|-----------------|-------------*|
|----------------|-----------------|-------------*|
|--0------0------|---0-------0-----|--0----------*|
|------0------0--|-------0------0--|-------------*|
   Q   Q  Q   Q      Q   Q   Q  Q     Q  Q  H


Duration Legend
---------------
W - whole;  H - half;  Q - quarter;  E - 8th;  S - 16th;  T - 32nd
+ - note tied to previous;  . - note dotted

Tablature Legend
----------------
 h   - hammer-on
 p   - pull-off
 s   - legato slide
 S   - shift slide
  - natural harmonic
[n]  - artificial harmonic
 PM  - palm muting
 x   - on rhythm slash represents muted slash
Tap to rate this tab
# A B C D E F G H I J K L M N O P Q R S T U V W X Y Z