Guitaretab - guitar tabs
Song name
# A B C D E F G H I J K L M N O P Q R S T U V W X Y Z

Nikita Koshkin - The Porcelain Tower - Variation 6 - Toccata - Fox-werewolf tab

Variations on a theme, "The Porcelain Tower" by Stepan Rak
Variation 6 - TOCCATA "FOX-WEREWOLF"
written by Nikita Koshkin, as recorded by Nikita Koshkin

transcribed by Eugene Kirpichov

  tuning - E A D G B E

  Vivo ostinato Q=140

 4/4
  W          S S S S S S S S S S S S S S S S
|----------|---------------------------------|
|-0--------|---0---0---0---0---0---0---0---0-|
|----------|-4---4---4---4---4---4---4---4---|
|----------|---------------------------------|
|----------|---------------------------------|
|----------|---------------------------------|


  S S S S S S S S S  S S S S E   S
|-----------------------------------|
|---0---0---0---0----0---0---0---0--|
|-4---4---4---4---4----4---4--------|
|-----------------------------------|
|------------------------------1----|
|-----------------------------------|
  H               Q.           E


  +S  S S S S S S S S S S S S E   S   +S  S S S S S S S S S S S S E   S
|-----------------------------------|-----------------------------------|
|-(0)-0---0---0---0---0---0---0---0-|-(0)-0---0---0---0---0---0---0---0-|
|-------4---4---4---4---4---4-------|-------4---4---4---4---4---4-------|
|-----------------------------------|-------------------------------4---|
|-----------------------------------|-----------------------------------|
|--1----------------------------4---|--3--------------------------------|
   H.                       E   E      H.                       E   E


  +S  S S S S E   S +S  S S S S E   S   +S  S S S S S S S S S S S +S  E   S
|-------------------------------------|-------------------------------------|
|-(0)-0---0---0---0-(0)-0---0---0---0-|-(0)-0---0---0---0---0---0-(0)-0---0-|
|-------4---4-------------4---4-------|-------4---4---4---4---4-------------|
|--3----------------------------------|-------------------------------------|
|---------------4----3------------2---|----------------------------1----0---|
|-------------------------------------|--0----------------------------------|
   Q.           E    Q        E   E      H.                        E    E


  +S  S S S S S S S +S  E   S +S  E   S   +S  S S S S S S S S S S S +S  E   S
|---------------------------------------|-------------------------------------|
|-(0)-0---0---0---0-(0)-0---0-(0)-0---0-|-(0)-0---0---0---0---0---0-(0)-0---0-|
|-------4---4---4-----------------------|-------4---4---4---4---4-------------|
|---------------------------------------|----------------------------6----5---|
|---------------------------------------|-------------------------------------|
|--1-----------------0----1----2----3---|--4----------------------------------|
   H                 E    E    E    E      H.                        E    E


 6/4
  +S  S S S +S  E   S +S  S S S S S S S S S S S +S  S S S
|---------------------------------------------------------|
|-(0)-0---0-(0)-0---0-(0)-0---0---0---0---0---0-(0)-0---0-|
|-------4-------------------4---4---4---4---4---------4---|
|--3------------------------------------------------------|
|------------6----5----3-------------------------2--------|
|---------------------------------------------------------|
   Q         E    E    H.                        Q


 4/4
  S S S S S S S S S S S S S S S S
|----------------------------------|
|----------------------------------|
|-------0-1p0-0-0-------0-3p0-0-0--|
|-----0---4-----------0---6--------|
|---2---------------3--------------|
|-0---------------4----------------|
  Q       Q       Q       Q


  S S S S S S S S S S S S S S S S   S S S S S S S S S S S S S S S S
|---------------------------------|---------------------------------|
|-0-0-1-1-3-3-4-4-3-3-1-1-3-3-1-1-|---------------------------------|
|-0---1---3---4---3---1---3---1---|-------0-1p0-0-0-------0-3p0-0-0-|
|---------------------------------|-----0---4-----------0---6-------|
|---------------------------------|---2---------------3-------------|
|---------------------------------|-0---------------4---------------|
  E   E   E   E   E   E   E   E     Q       Q       Q       Q


  S S S S S S S S S S S S S S S S   S S S S S S S S S S S S S S S S
|---------------------------------|---------------------------------|
|---0---1---0---------------------|---------------------------------|
|---------------3---2---0---------|-------0-1p0-0-0-------0-3p0-0-0-|
|---------------------------4---3-|-----0---4-----------0---6-------|
|-2---3---2---1---0---------------|---2---------------3-------------|
|---------------------3---2---1---|-0---------------4---------------|
  E   E   E   E   E   E   E   E     Q       Q       Q       Q


  S S S S S S S S S S S S S S S S   S S S S S S S S S S S S S S S S
|---------------------------------|---------------------------------|
|-1p0-3p0-4p0-3p0-1p0-0-0---------|-1p0-3p0-4p0-3p0-1p0-0-0---------|
|-3---5---7---5---3-------3p0-0-0-|-3---5---7---5---3-------3p0-0-0-|
|-------------------------6-------|-------------------------6-------|
|---------------------------------|---------------------------------|
|---------------------------------|---------------------------------|
  E   E   E   E   E   E   E   E     E   E   E   E   E   E   E   E


  S S  S  S  S  S  S  S  S  S S S  S  S S S
|-1p0--3p=0--4p=0--3p=0--1p=0-0-0-----------|
|-3----5-----6-----5-----3---------3p=0-0-0-|
|----------------------------------5--------|
|-------------------------------------------|
|-------------------------------------------|
|-0---(0)---(0)---(0)---(0)-------(0)-------|
  E    E     E     E     Q         Q


  S S  S  S  S  S  S  S  S  S  S  S  S  S  S  S
|-1p0--3p=0--4p=0--3p=0--6p=0--4p=0--6p=0--8p=0-|
|-3----5-----6-----5-----8-----6-----8----10----|
|-----------------------------------------------|
|-----------------------------------------------|
|-----------------------------------------------|
|-0---(0)---(0)---(0)---(0)---(0)---(0)---(0)---|
  E    E     E     E     E     E     E     E


   S S S S  S  S  S  S  S  S S S  S   S S S
|--9p0-0-0--8p=0--9p=0-11p=0-0-0-12p=11-9-0-|
|-11-------10----11----13-------------------|
|-------------------------------------------|
|-------------------------------------------|
|-------------------------------------------|
|--0-------(0)---(0)---(0)-------(0)--------|
   Q        E     E     Q        +Q


   S S S S  S  S  S  S  S  S  S  S  S  S  S  S
|--9p0-0-0--8p=0--9p=0-11p=0--9p=0--8p=0--7p=0-|
|-11-------10----11----13----11----10-----9----|
|----------------------------------------------|
|----------------------------------------------|
|----------------------------------------------|
|--0-------(0)---(0)---(0)---(0)---(0)---(0)---|
   Q        E     E     E     E     E     E


  S S S S  S  S  S  S  S  S S S  S  S S S   S S S S S S S S S S S S S S S S
|-6p0-0-0--5p=0--6p=0--8p=0-0-0--9p=8-6-0-|---------------------------------|
|-8--------7-----8----10------------------|-9p8-6p0-------------------------|
|-----------------------------------------|---------8p7-5p0---------------0-|
|-----------------------------------------|-----------------9p8-6p0-0h2-3---|
|-----------------------------------------|---------------------------------|
|-0-------(0)---(0)---(0)-------(0)-------|-0-------------------------------|
  Q        E     E     Q        +Q          W


  S S S S S S S S S S S S S S S S   S S S S S S S S S S S S S S S S
|---------------------------------|---------------0-2-2-3p0-5-5-6p0-|
|-----0-1-3p1-0-------0-1-3p1-0---|-----0-1-0h1-3-------------------|
|-1h3-----------3-1h3-----------3-|-1h3-----------------------------|
|---------------------------------|-----------------2---------------|
|---------------------------------|---------------------------------|
|-0---------------0---------------|-0-------0---------------0-------|
  E   E   Q       E   E   Q         E   E   E   E   E   E   E   E


  S S S S S S S S S S S S S S S S
|-2-2-3p0-5-5-6p0-----0-3-6p3-0---|
|-----------------3h4-----------4-|
|---------------------------------|
|-2---------------2---------------|
|---------------------------------|
|---------0-----------------------|
  E   E   E   E   E   E   Q


 6/4
  S S S S S S S S S S S S S S S S  S S S S  S  S S S
|-----0-3-6p5-3-0-8p6-5-0-9p8-5-0-11p9-8-0-12p11-8-0---|
|-3h4---------------------------------------0----------|
|------------------------------------------------------|
|-----------------0----------------8-------------------|
|---------0---------------6----------------------------|
|-0----------------------------------------------------|
  Q       E   E   E   E   E   E    E   E    Q


  S   S  S  S  S S S S S  S  S S S S S S S S S S S S S S
|----13-13-12-12-9-9-8-8---------------------------------|
|--------------------------------------------------------|
|------------------------10-10-9-9-6-6-5-5---------------|
|------------------------------------------3-3-2-2p0-----|
|----------------------------------------------------4-3-|
|-0------------------------------------------------------|
  W.


 5/4
  S S S S S S S S S S S S S S S S S S S S
|------------------------------------------|
|------------------------------------------|
|------------------------------------------|
|-------0-2p0-----------0-2-0-----------0--|
|-1h3-4-------4-3-1h3-4-------4-3-1h3-4----|
|-0---------------1---------------2--------|
  E   E   Q       E   E   Q       E   E

[ Tab from: http://www.guitaretab.com/n/nikita-koshkin/296711.html ]
 4/4
  S S S S S S S S S S S S S S S S   S S S S S S S S S S S S S S S S
|---------------------------------|----------------------------------|
|---------------------------------|----------------------------------|
|---------------------------------|----------------------------------|
|-2p0---3p0---2p0---3p0---7p6-3-0-|-2p0---3p0---2p0---3p0---7p6-3-0--|
|-----4-----4-----4-----4---------|-----4-----4-----4-----4----------|
|-3-----4-----3-----4-----0-------|-3-----4-----3-----4-----0--------|
  S E   S E   S E   S E   E   E     S E   S E   S E   S E   E   E


  S S S S S S S S S S S S S S S S   S S S S S S S S S S S S S S S S
|---------------------------------|---------------------------------|
|---------------------------------|-----------------------------0-4-|
|-2p0---3p0---2p0---3p0---6p5-3-0-|-2p0---3p0---2p0---3p0---2h3-----|
|-----4-----4-----4-----4---------|-----4-----4-----4-----4---------|
|-3-----4-----3-----4-----0-------|-3-----4-----3-----4-----0-------|
|---------------------------------|---------------------------------|
  S E   S E   S E   S E   E   E     S E   S E   S E   S E   E   E


  S S S S S S S S S S S S S S S S   S S S S S S S S  S  S S S S S  S  S
|-----------------------------0-4-|-3-3-4p0-6-6-7p0--8p=0---0---6----10-|
|-3-3-4p0-6-6-7p0-3-3-4p0-3h4-----|-2-------5--------7------------------|
|-3-------6-------3---------------|-3-------6--------8------------------|
|-3-------6-------3---------------|-------------------------------------|
|---------------------------------|-------------------------------------|
|-0-------------------------------|-0---------------(0)---0---6---10----|
  W                                 H               +E    E   E    E


   E e e e  e S S S S  S  S    E e e e e S S S S  S  S
|--9-6-6-5--9---0---6----10-|--9-6-6-5-3---0---9----13-|
|-10-7-7-6-10---------------|-10-7-7-6-4---------------|
|--0-0-0-0------------------|--0-0-0-0-----------------|
|---------------------------|--------------------------|
|---------------------------|--------------------------|
|--8-5-5-4--8-0---6---10----|--8-5-5-4-2-0---8---13----|
   E e e e  e E   E    E       E e e e e E   E    E


   E  e  e e  e S S S S  S  S    E  e  e e  e e  e  e
|-12--9--9-8-12---0---9----13-|-12--9--9-8-12-0-12-14-|
|-13-10-10-9-13---------------|-13-10-10-9-13-0--0--0-|
|--0--0--0-0------------------|--0--0--0-0--0-0-11-12-|
|-----------------------------|-----------------------|
|-----------------------------|---------------0-11----|
|-11--8--8-7-11-0---9---13----|-11--8--8-7-11------13-|
   E  e  e e  e E   E    E       E  e  e e  e e  e  e


    E  S  S  S  S  S  S  S  S  S  S  S  S  S  S
|-^15----15----15----15----16----16----16----16-|
|-^-0-15----14----12----16----15----13----14----|
|-^13-------------------------------------------|
|-^-0-------------------------------------------|
|-^-0-------------------------------------------|
|-^-0-------------------------------------------|
    E  E     E     E     E     E     E     E


    E  S  S  S  S  S  S  S  S  S  S  S  S  S  S
|-^15----15----15----15----12----12----12----12--|
|-^12-15----14----12----11----12----11-----------|
|-^13-------------------------------------12-----|
|-^-0--------------------------------------------|
|-^-0--------------------------------------------|
|-^-0--------------------------------------------|
    E  E     E     E     E     E     E     E


    E  S  S  S  S  S  S  S  S  S  S  S  S  S  S
|-^13----13----13----13----14----14----14----14-|
|-^10-13----11----10----14----13----11----------|
|-^11-------------------------------------12----|
|-^-0-------------------------------------------|
|-^-0-------------------------------------------|
|-^-0-------------------------------------------|
    E  E     E     E     E     E     E     E


 6/4
    E  S  S  S  S  S  S S  S  S  S S  S S  S S S S S S S S S
|-^13----13----13----13---10----10---10---10---6---6---6---6--|
|-^10-13----11----10----9----10----9----7----6---7---6--------|
|-^11----------------------------------------------------8----|
|-^-0---------------------------------------------------------|
|-^-0---------------------------------------------------------|
|-^-0---------------------------------------------------------|
    E  E     E     E    E     E    E    E    E   E   E   E


 4/4
   E  E S S S S  E  E S S S S   S S S S S S S S S S S S S S S S
|-^9-^9-9p8-6-0-^9-^9-9p8-6-0-|---------------------------------|
|-^8-^8---------^8-^8---------|-9p8-6-0-------------------------|
|-^7-^7---------^7-^7---------|---------8p7-5-0-----------------|
|-^6-^6---------^6-^6---------|-----------------9p8-6-0---------|
|-^6-^6---------^6-^6---------|-------------------------9p8-6-0-|
|-^6-^6---------^6-^6---------|---------------------------------|


  S S S S S S S S S S S S S S S S   S S S S S S S S S S S S S S S S
|---------------------------------|---------------------------------|
|---------------------------------|---------------------------------|
|---------------------------------|---------------------------------|
|---------------------------------|---------------------------------|
|---------9p8-6-0-----------------|---------------------------------|
|-9p8-6-0---------9p8-6-0-7p0-6p0-|-5p0-3p0-2p0-3p0-2p0-3p0-4p0-3p0-|


  W                 E E E E +Q    E E   E E E E +Q    E E
|-----------------|-------------------|-----------------0-|
|-----------------|-3-3-3-3-(3)---0-2-|-3-3-3-3-(3)---3---|
|-2-0-3-0-2-0-3-0-|-2-0-3-0--2--0-3-0-|-2-0-3-0--2--0-3-0-|
|-----------------|-------------------|-------------------|
|-----------------|-------------------|-------------------|
|-2-0-3-0-2-0-3-0-|-2-0-3-0--2--0-3-0-|-2-0-3-0--2--0-3-0-|
  e e e e e e e e   e e e e  e  e e e   e e e e  e  e e e


  E E E E +Q    Q     E E E E +Q    E E   E E E E E E E E
|-1-1-1-1-(1)---3---|-4-4-4-4-(4)---1-3-|-4-3-4-6-7-6-7-9-|
|-----------------0-|-2-0-3-0--2--0-3-0-|-2-0-3-0-4-0-5-0-|
|-2-0-3-0--2--0-3---|-------------------|-----------------|
|-------------------|-------------------|-----------------|
|-----------------0-|-2-0-3-0--2--0-3-0-|-2-0-3-0-4-0-5-0-|
|-2-0-3-0--2--0-3---|-------------------|-----------------|
  e e e e  e  e e e   e e e e  e  e e e   e e e e e e e e


   E  Q.     E  Q.        E  Q.      E  Q.
|-10-10------9-10------|-11-11------10-11------|
|--6--0--7-0-6--0--7-0-|--8--0--9-0--8--0--9-0-|
|--6--0--7-0-6--0--7-0-|--8--0--9-0--8--0--9-0-|
|----------------------|--8--0--9-0--8--0--9-0-|
|--6--0--7-0-6--0--7-0-|--8--0--9-0--8--0--9-0-|
|----------------------|-----------------------|
   e  e  e e e  e  e e    e  e  e e  e  e  e e


   E  E  E  E  +Q     E  E    E  E  E  E  +Q     E  E
|-12-12-12-12-(12)----9-11-|-12-12-12-12-(12)---12-14-|
|-10--0-11--0--10--0-11--0-|-10--0-11--0--10--0-11--0-|
|--9--0-10--0---9--0-10--0-|--9--0-10--0---9--0-10--0-|
|--8--0--9--0---8--0--9--0-|--8--0--9--0---8--0--9--0-|
|--8--0--9--0---8--0--9--0-|--8--0--8--0---8--0--8--0-|
|--8--0--9--0---8--0--9--0-|--8--0--8--0---8--0--8--0-|
   e  e  e  e   e  e  e  e    e  e  e  e   e  e  e  e


   E  E  E  E  +Q     E  E    E  E  E  E  E  E  E  E
|-15-15-15-15-(15)---12-14-|-15-15-15-15-15-15-15-15-|
|-13--0-14--0--13--0-14--0-|-13--0-14--0-13--0-14--0-|
|-12--0-13--0--12--0-13--0-|-12--0-13--0-12--0-13--0-|
|-11--0-12--0--11--0-12--0-|-11--0-12--0-11--0-12--0-|
|-11--0-12--0--11--0-12--0-|-11--0-12--0-11--0-12--0-|
|-11--0-12--0--11--0-12--0-|-11--0-12--0-11--0-12--0-|
   e  e  e  e   e  e  e  e    e  e  e  e  e  e  e  e


  H         H            E  E  E  E  E  E  E  E    H         E  E  E  E
|---------------------|-15-15-15-15-15-15-15-15-|--------------15-15-15-|
|---------------------|-13--0-14--0-13--0-14--0-|---------------0-14--0-|
|---------------------|-12--0-13--0-12--0-13--0-|---------------0-13--0-|
|---------------------|-11--0-12--0-11--0-12--0-|---------------0-12--0-|
|---------------------|-11--0-12--0-11--0-12--0-|---------------0-12--0-|
|-0-12-0-11-0-12-0-11-|-11--0-12--0-11--0-12--0-|-11-0-12-0-11--0-12--0-|
  e  e e  e e  e e  e    e  e  e  e  e  e  e  e    e e  e e  e  e  e  e


                            Pesante Q=60
   E  E  E  E  E  E  E  E    E E  E E  E E  E E
|-15-15-15-15-15-15-15-15-|-17---17---17---17---|
|-13--0-14--0-13--0-14--0-|-16---16---16---16---|
|-12--0-13--0-12--0-13--0-|-15---15---15---15---|
|-11--0-12--0-11--0-12--0-|--0----0----0----0---|
|-11--0-12--0-11--0-12--0-|--0----0----0----0---|
|-11--0-12--0-11--0-12--0-|--0----0----0----0---|
   e  e  e  e  e  e  e  e


                                              3/4
  Q   H     Q     Q  H    E E   H    E E E E   H    Q
|----17----12--|-13--8----9-8-|-0------------|------9---|
|--------------|--------------|------0-0-0-0-|-0--------|
|--------------|--------------|------5-6-5-3-|-5--------|
|--------------|--------------|------5-6-5-3-|-5--------|
|--------------|--------------|--------------|----------|
|----17----12--|-13--8----9-8-|-0----5-6-5-3-|-5----9---|


 4/4                            5/4
   Q   H    E E   H    E E E E   H    Q  Q..   S
|-12--11----9-8-|-0------------|------3--5-----6-|
|---------------|------0-0-0-0-|-0---------------|
|---------------|------6-7-6-5-|-3---------------|
|---------------|------6-7-6-5-|-3---------------|
|---------------|--------------|-----------------|
|-12--11----9-8-|-0----6-7-6-5-|-3----3--5-----6-|


 4/4
  Q  Q  Q   Q     H    E E E E   H    E E E E
|-6--0--8--11--|-10------------|--------------|
|--------------|-------0-0-0-0-|-0----0-0-0-0-|
|--------------|-------5-7-5-3-|-2----3-5-3-2-|
|--------------|-------5-6-5-3-|-2----3-4-3-2-|
|--------------|---------------|--------------|
|-6--0--8--11--|-10----5-6-5-3-|-2----3-4-3-2-|


 3/4       4/4
  H    Q    Q  Q  Q  Q     W           W
|------0--|-2--4--7--8--|-11--------|-12----*|
|-0-------|-------------|-----------|-------*|
|-1-------|-------------|-----------|-------*|
|-1-------|-------------|-----------|-------*|
|---------|-------------|-----------|-------*|
|-2----0--|-2--4--7--8--|-11--------|-12----*|


Duration Legend
---------------
W - whole;  H - half;  Q - quarter;  E - 8th;  S - 16th;  T - 32nd
+ - note tied to previous;  . - note dotted

Tablature Legend
----------------
 h   - hammer-on
 p   - pull-off
 =   - acts as connecting device for hammers/pulls
Related for The Porcelain Tower - Variation 6 - Toccata - Fox-werewolf tab
×
Best way to learn
"The Porcelain Tower - Variation 6 - Toccata - Fox-werewolf"