Song name
# A B C D E F G H I J K L M N O P Q R S T U V W X Y Z

Nikki Clan - Las Curvas De Esa Chica tab

Distorsion
e|------------------------------------------------------------|
B|------------------------------------------------------------|
G|------------------------------------------------------------|
D|------------------------------------------------------------|
A|(0)~~~------------------------------------------------------|
E|(0)~~~------------------------------------------------------|

e|------------------------------------------------------------|
B|------------------------------------------------------------|
G|--7-5-7--7-7--5-5---757-- 10-10--9-9------7-7-------77------|
D|--x-x-x--x-x--x-x---xxx---x--x---x-x------x-x--5-5--xx--55--|
A|--5-3-5--5-5--3-3---535---8--8---7-7------5-5--x-x--55--xx--|
E|-----------------------------------------------3-3------33--|

e|------------------------------------------------------------|
B|------------------------------------------------------------|
G|------------------------------------------------------------|
D|--77-99-10-10-11-11-----------------------------------------|
A|--77-99-10-10-11-11-----------------------------------------|
E|--55-77-8--8--9--9------------------------------------------|

e|---------------------------------------------------------------|
B|---------------------------------------------------------------|
G|--7-5-7--7-7--5-5---757-- 10-10--9-9--10-10--12-12--1010--12-12|
D|--x-x-x--x-x--x-x---xxx---x--x---x-x--10-10--12-12--1010--12-12|
A|--5-3-5--5-5--3-3---535---8--8---7-7--8--8---10-10--8-80--10-10|
E|---------------------------------------------------------------|

e|------------------------------------------------------------|
B|------------------------------------------------------------|
G|-14-14-15-15-17-17-19-19------------------------------------|
D|-14-14-15-15-17-17-19-19------------------------------------|
A|-12-12-11-11-15-15-17-17------------------------------------|
E|------------------------------------------------------------|
Tap to rate this tab
 
# A B C D E F G H I J K L M N O P Q R S T U V W X Y Z