Guitaretab - guitar tabs
Song name
# A B C D E F G H I J K L M N O P Q R S T U V W X Y Z

Nikki Gil - If I Keep My Heart Out Of Sight tab

If i Keep my heart out of sight:
by nikki gil

Intro:

E----------------------------------------|
B----------------------------------------|
G---81010/12--13--12-1012--8--8-------|
D-10-------------------------------10-8-|
A----------------------------------------|
E----------------------------------------|

[ Tab from: http://www.guitaretab.com/n/nikki-gil/142079.html ]
E--------------------------|
B--------------------------|
G---81010/12--8--8-------|
D-10------------------10-8|
A--------------------------|
E--------------------------|







yan yta ung intro nung version ni nikki gil!!..
SUBOK lng toh.. 
pra may mlagay lng.. hehe..

Cris from fairview..
for sheena ung song!!



Related for If I Keep My Heart Out Of Sight tab