Guitaretab - guitar tabs
Song name
# A B C D E F G H I J K L M N O P Q R S T U V W X Y Z

Nikki - How To Break A Heart tab

HOW TO BREAK A HEART - nikki
http://www.nikki-k.nl/

laat ff een leuke reactie achter ;)


tabber: paul westerink
mail: paul11ajax@hotmail.com


tuning: standard
GTR I  EADGBe
GTR II  EADGBe

Legenda
| x  muted note
| >  fade out


I hang on every word you said and
No one could get inside my head like you
Then I guess I was a fool for you then
GTR I
|------------------------------------|
|------------------------------------|
|--7-7-7--7-7-7-7---5-5-5-5-5-5-5-5--|
|--4-4-4--5-5-5-5-4-5-5-5-5-5-5-5-5--|
|--5-5-5--5-5-5-5---3-3-3-3-3-3-3-3--|
|------------------------------------|
|GTR II                              
|------------------------------------|
|--3------3---------3----------------|
|--2------0---------0----------------|
|--0------x---------2----------------|
|--0------2---------3----------------|
|------------------------------------|



But now I understand
It was all part off your plan
And you should know that
GTR I
|-----------------------------------|
|-----------------------------------|
|-----------------------------------|
|--2-2-2-2-2-2-2-2--5-5-5-5-5-5-7-7-|
|--2-2-2-2-2-2-2-2--3-3-3-3-3-3-5-5-|
|-----------------------------------|
|GTR II
|--3----------------3---------------|
|--3----------------3-----------3---|
|--0----------------0-----------2---|
|--2----------------2-----------0---|
|--2----------------3-----------0---|
|-----------------------------------|



You taught me what it was
To feel the sting of love
To feel like I don't ever wanna let somebody ever get that close to me again
I learned so much from you
Things I'd never do
now that we're apart
GTR I
|--3-3-3-3-3-3-3-3-------------------3-3-3-3-3-3-3-3--3-3-3-3-3-3-3-3--|
|--3-3-3-3-3-3-3-3--3-3-3-3-3-3-3-3--3-3-3-3-3-3-3-3--3-3-3-3-3-3-3-3--|
|--0-0-0-0-0-0-0-0--2-2-2-2-2-2-2-2--0-0-0-0-0-0-0-0--0-0-0-0-0-0-0-0--|
|--0-0-0-0-0-0-0-0--0-0-0-0-0-0-0-0--2-2-2-2-2-2-2-2--2-2-2-2-2-2-2-2--|
|--2-2-2-2-2-2-2-2--0-0-0-0-0-0-0-0--2-2-2-2-2-2-2-2--3-3-3-3-3-3-3-3--|
|--3-3-3-3-3-3-3-3-----------------------------------------------------|

You taught me how to break a heart


Dear God if you can hear me know
please stop the anger building up inside me
I need you to come and guide me
GTR I
|------------------------------------|
|------------------------------------|
|--7-7-7--7-7-7-7---5-5-5-5-5-5-5-5--|
|--4-4-4--5-5-5-5-4-5-5-5-5-5-5-5-5--|
|--5-5-5--5-5-5-5---3-3-3-3-3-3-3-3--|
|------------------------------------|
|GTR II                              
|------------------------------------|
|--3------3---------3----------------|
|--2------0---------0----------------|
|--0------x---------2----------------|
|--0------2---------3----------------|
|------------------------------------|

[ Tab from: http://www.guitaretab.com/n/nikki/193235.html ]
I look into the eyes
Of the one I thought was mine
And all I scream is
GTR I
|-----------------------------------|
|-----------------------------------|
|-----------------------------------|
|--2-2-2-2-2-2-2-2--5-5-5-5-5-5-7-7-|
|--2-2-2-2-2-2-2-2--3-3-3-3-3-3-5-5-|
|-----------------------------------|
|GTR II
|--3----------------3---------------|
|--3----------------3-----------3---|
|--0----------------0-----------2---|
|--2----------------2-----------0---|
|--2----------------3-----------0---|
|-----------------------------------|



You taught me what it was
To feel the sting of love
To feel like I don't ever wanna let somebody ever get that close to me again
I learned so much from you
Things I'd never do
now that we're apart
You taught me how to break a heart        
GTR I
|--3-3-3-3-3-3-3-3-------------------3-3-3-3-3-3-3-3--3-3-3-3-3-3-3-3--|
|--3-3-3-3-3-3-3-3--3-3-3-3-3-3-3-3--3-3-3-3-3-3-3-3--3-3-3-3-3-3-3-3--|
|--0-0-0-0-0-0-0-0--2-2-2-2-2-2-2-2--0-0-0-0-0-0-0-0--0-0-0-0-0-0-0-0--|
|--0-0-0-0-0-0-0-0--0-0-0-0-0-0-0-0--2-2-2-2-2-2-2-2--2-2-2-2-2-2-2-2--|
|--2-2-2-2-2-2-2-2--0-0-0-0-0-0-0-0--2-2-2-2-2-2-2-2--3-3-3-3-3-3-3-3--|
|--3-3-3-3-3-3-3-3-----------------------------------------------------|



No one could get inside my head
GTR I                         >
|------------------------------------|
|------------------------------------|
|--7-7-7--7-7-7-7---5-5-5-5-5-5-5-5--|
|--4-4-4--5-5-5-5-4-5-5-5-5-5-5-5-5--|
|--5-5-5--5-5-5-5---3-3-3-3-3-3-3-3--|
|------------------------------------|



You taught me what it was
To feel the sting of love
To feel like I don't ever wanna let somebody ever get that close to me again
I learned so much from you
Things I'd never do
now that we're apart
GTR I
|--3-3-3-3-3-3-3-3-------------------3-3-3-3-3-3-3-3--3-3-3-3-3-3-3-3--|
|--3-3-3-3-3-3-3-3--3-3-3-3-3-3-3-3--3-3-3-3-3-3-3-3--3-3-3-3-3-3-3-3--|
|--0-0-0-0-0-0-0-0--2-2-2-2-2-2-2-2--0-0-0-0-0-0-0-0--0-0-0-0-0-0-0-0--|
|--0-0-0-0-0-0-0-0--0-0-0-0-0-0-0-0--2-2-2-2-2-2-2-2--2-2-2-2-2-2-2-2--|
|--2-2-2-2-2-2-2-2--0-0-0-0-0-0-0-0--2-2-2-2-2-2-2-2--3-3-3-3-3-3-3-3--|
|--3-3-3-3-3-3-3-3-----------------------------------------------------|

You taught me how to break a heart



lyrics:
I hang on every word you said and
No one could get inside my head like you
Then I guess I was a fool for you then
But now I understand
It was all part off your plan
And you should know that

You taught me what it was
To feel the sting of love
To feel like I don't ever wanna let somebody ever get that close to me again
I learned so much from you
Things I'd never do
now that we're apart
You taught me how to break a heart

Dear God if you can hear me know
please stop the anger building up inside me
I need you to come and guide me
I look into the eyes
Of the one I thought was mine
And my only scream is

You taught me what it was
To feel the sting of love
To feel like I don't ever wanna let somebody ever get that close to me again
I learned so much from you
Things I'd never do
now that we're apart
You taught me how to break a heart

No one could get inside my head
You taught me what it was
To feel the sting of love
To feel like I don't ever wanna let somebody ever get that close to me again
I learned so much from you
Things I'd never do
now that we're apart

You taught me what it was
To feel the sting of love
To feel like I don't ever wanna let somebody ever get that close to me again
I learned so much from you
Things I'd never do
now that we're apart
You taught me how to break a heart



×
Best way to learn
"How To Break A Heart"