Song name
# A B C D E F G H I J K L M N O P Q R S T U V W X Y Z

Nikolai Rimsky-korsakov - Flight Of The Bumble Bee tab

FLIGHT OF THE BUMBLE BEE -  R KORSAKOV

This is obviously difficult to play at the original speed.
But still it's fun. Hope you enjoy.



  M.M. = 150

|-12-11-10-9-10-9-8-7-|-8-7-6-5-4-3-2-1-|-0---------------|------------------|
|---------------------|-----------------|---4-3-2-3-2-1-0-|-1-0--------------|
|---------------------|-----------------|-----------------|-----3-2-1-0------|
|---------------------|-----------------|-----------------|-------------4-3--|
|---------------------|-----------------|-----------------|------------------|
|---------------------|-----------------|-----------------|------------------|


|-----------------|-----------------|-----------------|------------------|
|-----------------|-----------------|-----------------|------------------|
|-----------------|-----------------|-----------------|------------------|
|-2-1-0---0-------|-2-1-0---0-------|-----------------|------------------|
|-------4---4-3-2-|-------4---4-3-2-|-7-6-5-4-3-8-7-6-|-7-6-5-4-3-4-5-6--|
|-----------------|-----------------|-----------------|------------------|


|-----------------|-----------------|-----------------|------------------|
|-----------------|-----------------|-----------------|------------------|
|-----------------|-----------------|-----------------|------------------|
|-----------3-2-1-|-2-1-0-----------|-----------------|------------------|
|-7-6-5-4-3-------|-------4-3-4-5-6-|-7-6-5-4-5-4-3-2-|-3-4-5-6-7-8-7-6--|
|-----------------|-----------------|-----------------|------------------|


|-----------------|-----------------|-----------------|------------------|
|-----------------|-----------------|-----------------|------------------|
|-----------------|-----------------|-----------------|------------------|
|-----------------|-----------4-5-6-|-7-6-5-4-3-8-7-6-|-7-6-5-4-3-4-5-6--|
|-7-6-5-4-5-4-3-2-|-3-4-5-6-7-------|-----------------|------------------|
|-----------------|-----------------|-----------------|------------------|


|-----------------|-----------------|-----------------|------------------|
|-----------------|-----------------|-----------------|------------------|
|-----------------|-----------------|-----------------|------------------|
|-7-6-5-4-3-8-7-6-|-7-6-5-4-3-4-5-6-|-7-6-5-4-5-4-3-2-|-3-4-5-6-7-8-7-6--|
|-----------------|-----------------|-----------------|------------------|
|-----------------|-----------------|-----------------|------------------|


|-----------------|-----------------|-----------------|------------------|
|-----------------|-----------------|-----------------|------------------|
|-----------------|-----------------|-----------------|-3---3---3---3----|
|-7-6-5-4-5-4-3-2-|-3-4-5-6-7-8-7-6-|-7---------------|------------------|
|-----------------|-----------------|---0-0-0-0-0-0-0-|------------------|
|-----------------|-----------------|-----------------|---4---4---4---4--|


|-----------------|-----------------|-----------------|------------------|
|-----------------|-----------------|-----------------|------------------|
|-2---------------|-3---3---3---3---|-2-3-2-1-2-3-2-1-|-2-3-2-1-2-3-2-1--|
|-----------------|-----------------|-----------------|------------------|
|---0-0-0-0-0-0-0-|-----------------|-0---------------|------------------|
|-----------------|---4---4---4---4-|-----------------|------------------|


|-----------------|-----------------|-----------------|------------------|
|-----------------|-----------------|-3---------------|-4---4---4---4----|
|-2-3-4-5-6-5-4-3-|-2-3-4-5-6-5-4-3-|-----------------|------------------|
|-----------------|-----------------|---0-0-0-0-0-0-0-|------------------|
|-----------------|-----------------|-----------------|---4---4---4---4--|
|-----------------|-----------------|-----------------|------------------|


|-----------------|-----------------|-----------------|------------------|
|-3---------------|-4---4---4---4---|-3-4-3-2-3-4-3-2-|-3-4-3-2-3-4-3-2--|
|-----------------|-----------------|-----------------|------------------|
|---0-0-0-0-0-0-0-|-----------------|-0---------------|------------------|
|-----------------|---4---4---4---4-|-----------------|------------------|
|-----------------|-----------------|-----------------|------------------|


|------------------|--------------------|
|-3-4-5-6-7--------|--------------------|
|-----------10-9-8-|-7-8-9-10-11-10-9-8-|
|------------------|--------------------|
|------------------|--------------------|
|------------------|--------------------|


|-10-9-8-7-6-11-10-9-|-10-9-8-7-6-7-8-9--|
|--------------------|-------------------|
|--------------------|-------------------|
|--------------------|-------------------|
|--------------------|-------------------|
|--------------------|-------------------|


|-10-9-8-7-8-7-6-5-|-6-7-8-9-8-9-10-11-|
|------------------|-------------------|
|------------------|-------------------|
|------------------|-------------------|
|------------------|-------------------|
|------------------|-------------------|


|-12-11-10-9-10-9-8-7-|-8-7-6-5-4-3-2-1--|
|---------------------|------------------|
|---------------------|------------------|
|---------------------|------------------|
|---------------------|------------------|
|---------------------|------------------|


|-0-1-0---0-1-0---|-0-1-0---0-1-0---|-0--------|--------------|
|-------4-------4-|-------4-------4-|----------|--------------|
|-----------------|-----------------|----------|--------------|
|-----------------|-----------------|----2-----|--------------|
|-----------------|-----------------|-------3--|-0-----0--3---|
|-----------------|-----------------|----------|----1---------|


|-----------------|-----------------|----0---|---------|-0--12--8---|
|-----------------|-----------------|------1-|-------1-|------------|
|-----------------|-----------------|--------|-2---2---|------------|
|-2-1-0---0-------|-----------------|--------|---3-----|------------|
|-------4---4-3-2-|-3-2-1-0---------|--------|---------|------------|
|-----------------|---------4-3-2-1-|-0------|---------|------------|


|-------------8--|-12---0--|-[0]----------|
|-10------10-----|---------|--------------|
|-----10---------|---------|--------------|
|----------------|---------|--------------|
|----------------|---------|--------------|
|----------------|---------|------0-1-2-3-|


|-----------------|------------------|
|-----------------|------------------|
|-----------------|------------------|
|-------------0---|------------------|
|---0-----------6-|-7-8-7-6-7-8-7-6--|
|-4---6-7-8-9-----|------------------|


|------------------|-----------------|------------------|------------------|
|------------------|-----------------|------------------|------------------|
|-9-8-7-6-5-10-9-8-|-9-8-7-6-5-6-7-8-|-9-8-7-6-5-10-9-8-|-9-8-7-6-5-6-7-8--|
|------------------|-----------------|------------------|------------------|
|------------------|-----------------|------------------|------------------|
|------------------|-----------------|------------------|------------------|


|-----------------|------------------|-----------------|------------------|
|-----------------|------------------|-----------------|---------5-7-8-9--|
|-9-8-7-6-7-6-5-4-|-5-6-7-8-9-10-9-8-|-9-8-7-6-7-6-5-4-|-5-6-7-8----------|
|-----------------|------------------|-----------------|------------------|
|-----------------|------------------|-----------------|------------------|
|-----------------|------------------|-----------------|------------------|


|--------------------|------------------|
|-10-9-8-7-6-11-10-9-|-10-9-8-7-6-7-8-9-|
|--------------------|------------------|
|--------------------|------------------|
|--------------------|------------------|
|--------------------|------------------|


|--------------------|-------------------|
|-10-9-8-7-6-11-10-9-|-10-9-8-7-6-7-8-9--|
|--------------------|-------------------|
|--------------------|-------------------|
|--------------------|-------------------|
|--------------------|-------------------|


|------------------|--------------------|
|-10-9-8-7-8-7-6-5-|-6-7-8-9-10-11-10-9-|
|------------------|--------------------|
|------------------|--------------------|
|------------------|--------------------|
|------------------|--------------------|


|------------------|----------10-12-13-12-11--|
|-10-9-8-7-6-7-8-9-|-10-12-13-----------------|
|------------------|--------------------------|
|------------------|--------------------------|
|------------------|--------------------------|
|------------------|--------------------------|


|-12-11-10-9-8-13-12-11-|-12-11-10-9-8-9-10-11-|
|-----------------------|----------------------|
|-----------------------|----------------------|
|-----------------------|----------------------|
|-----------------------|----------------------|
|-----------------------|----------------------|


|-12------------8-9-|-10-9-8----8-----------|
|----9-10-11-12-----|--------12---12-11-10--|
|-------------------|-----------------------|
|-------------------|-----------------------|
|-------------------|-----------------------|
|-------------------|-----------------------|


|------------8-9-10-11-|-12-13-12-11-12-13-12-11-|
|-9-10-11-12-----------|-------------------------|
|----------------------|-------------------------|
|----------------------|-------------------------|
|----------------------|-------------------------|
|----------------------|-------------------------|


|-12------------8-9-|-10-9-8----8-----------|
|----9-10-11-12-----|--------12---12-11-10--|
|-------------------|-----------------------|
|-------------------|-----------------------|
|-------------------|-----------------------|
|-------------------|-----------------------|


|------------8-9-10-11-|-12-13-12-11-12-14-15-16-|
|-9-10-11-12-----------|-------------------------|
|----------------------|-------------------------|
|----------------------|-------------------------|
|----------------------|-------------------------|
|----------------------|-------------------------|


|-17-16-15-14-15-14-13-12-|-13-12-11-10-9-8-7-6--|
|-------------------------|----------------------|
|-------------------------|----------------------|
|-------------------------|----------------------|
|-------------------------|----------------------|
|-------------------------|----------------------|


|-5-4-3-2-3-2-1-0-|-1-0-------------|-----------------|------------------|
|-----------------|-----4-3-2-1-----|-----------------|-------------2-3--|
|-----------------|-------------4-3-|-2-3-2-1-2-3-2-1-|-2-3-2-1-2-4------|
|-----------------|-----------------|-----------------|------------------|
|-----------------|-----------------|-----------------|------------------|
|-----------------|-----------------|-----------------|------------------|


|h0p1-0--h0p1-0---|h0p1-0---0-2-3-4-|-5----------|------------------|
|-------4-------4-|-------4---------|------------|------------------|
|-----------------|-----------------|------------|-1-2-3-4-5-6-7-8--|
|-----------------|-----------------|----2-3-4-5-|------------------|
|-----------------|-----------------|------------|------------------|
|-----------------|-----------------|------------|------------------|


|--------------------|-8-9-10-11-12-14-15-16-|-17--5--|------*|
|-5-6-7-8-9-10-11-12-|-----------------------|-----5--|------*|
|--------------------|-----------------------|-----5--|------*|
|--------------------|-----------------------|--------|-7----*|
|--------------------|-----------------------|--------|------*|
|--------------------|-----------------------|--------|------*|


Tap to rate this tab
# A B C D E F G H I J K L M N O P Q R S T U V W X Y Z