Song name
# A B C D E F G H I J K L M N O P Q R S T U V W X Y Z

Nikolai Rimsky-korsakov - Flight Of The Bumble Bee tab

Arranged for guitar
by Christian_ottem@hotmail.com
http://www.geocities.com/classicalsweeps/



E||--12-11-10-9-10-9-8-7-|--8-7-6-5---------|------------------|
B||----------------------|----------9-8-7-6-|------------------|
G||----------------------|------------------|--9-8-7-6-7-6-5-4-|
D||----------------------|------------------|------------------|
A||----------------------|------------------|------------------|
E||----------------------|------------------|------------------|


------------------|------------------|------------------|------------------|
------------------|--5-4-------------|--5-4-------------|--5-4-------------|
--5t4-3-2---------|------7-6-7-6-5-4-|------7-6-7-6-5-4-|------7-6-5-4-----|
----------6-5-4-3-|------------------|------------------|--------------8-7-|
------------------|------------------|------------------|------------------|
------------------|------------------|------------------|------------------|


------------------|------------------|------------------|------------------|
----------------4-|--5-4-------6-5-4-|--5-4-----------4-|--5-4-------6-5-4-|
--------4-5-6-7---|------7-6-5-------|------7-6-5-6-7---|------7-6-5-------|
--6-7-8-----------|------------------|------------------|------------------|
------------------|------------------|------------------|------------------|
------------------|------------------|------------------|------------------|


------------------|------------------|------------------|------------------|
--5-4-----------4-|--5-4-------------|----------5-6-5-4-|--5-4-------------|
------7-6-5-6-7---|------7-6-7-6-5-4-|--5-6-7-8---------|------7-6-7-6-5-4-|
------------------|------------------|------------------|------------------|
------------------|------------------|------------------|------------------|
------------------|------------------|------------------|------------------|


------------------|-------------------------|------------------------|
----------5-7-8-9-|--10-9----------11-10-9--|--10-9----------------9-|
--5-6-7-8---------|-------12-11-10----------|-------12-11-10-11-12---|
------------------|-------------------------|------------------------|
------------------|-------------------------|------------------------|
------------------|-------------------------|------------------------|


------------------------|------------------------|-------------------------|
--10-9----------11-10-9-|--10-9----------------9-|--10-9-------------------|
-------12-11-10---------|-------12-11-10-11-12---|-------12-11-10-12-11-10-|
------------------------|------------------------|-------------------------|
------------------------|------------------------|-------------------------|
------------------------|------------------------|-------------------------|


------------------------|-------------------------|------------------------|
-------------9-10-11-10-|--10-9-------------------|-----------9-10-11-10-9-|
--9-10-11-12------------|-------12-11-12-11-12-11-|--10-11-12--------------|
------------------------|-------------------------|------------------------|
------------------------|-------------------------|------------------------|
------------------------|-------------------------|------------------------|


------------------|------------------|------------------|------------------|
------------------|------------------|------------------|------------------|
------------------|------------------|------------------|------------------|
--7-7-7-7-7-7-7-7-|--8-6-8-6-8-6-8-6-|--7-7-7-7-7-7-7-7-|--8-6-8-6-8-6-8-6-|
------------------|------------------|------------------|------------------|
------------------|------------------|------------------|------------------|


------------------|--------------------|------------------|------------------|
------------------|--------------------|------------------|------------------|
------------------|--------------------|--6-6-6-6-6-6-6-6-|--6-6-6-6-6-6-6-6-|
--7-8-9-8-7-8-9-8-|--7-8-9-8-9-9-10-10-|------------------|------------------|
------------------|--------------------|------------------|------------------|
------------------|--------------------|------------------|------------------|


------------------|------------------|------------------|------------------|
------------------|------------------|------------------|------------------|
--7-7-7-7-7-7-7-7-|--8-6-8-6-8-6-8-6-|--7-7-7-7-7-7-7-7-|--8-6-8-6-8-6-8-6-|
------------------|------------------|------------------|------------------|
------------------|------------------|------------------|------------------|
------------------|------------------|------------------|------------------|


------------------|------------------|------------------|------------------|
------------------|----------5-5-6-6-|--7-7-7-7-7-7-7-7-|--7-7-7-7-7-7-7-7-|
--7-7-7-7-8-8-8-8-|--7-7-8-8---------|------------------|------------------|
------------------|------------------|------------------|------------------|
------------------|------------------|------------------|------------------|
------------------|------------------|------------------|------------------|


--3---------------|------------------|------------------|------------------|
--3-2-------4-3-2-|--3-2-----------2-|--3-2-------------|------------------|
------5-4-3-------|------5-4-3-4-5---|------5-4-5-4-3-2/|--3-4-5-6-5-6-7-8-|
------------------|------------------|------------------|------------------|
------------------|------------------|------------------|------------------|
------------------|------------------|------------------|------------------|


------------------|------------------|-------0-----|--------------|
--5-4-------------|------------------|----------1--|-----------1--|
------7-6-7-6-5-4-|--5-4-3-2---------|-------------|--2-----2-----|
------------------|----------6-5-4-3-|--2----------|-----3--------|
------------------|------------------|-------------|--------------|
------------------|------------------|-------------|--------------|


--0----0-----|--------------|------------------|------------------|
----------1--|-----------1--|--5-4-------------|------------------|
-------------|--2-----2-----|------7-6-7-6-5-4-|--5-4-3-2---------|
-------------|-----3--------|------------------|----------6-5-4-3-|
-------------|--------------|------------------|------------------|
-------------|--------------|------------------|------------------|


-------12--8--|--------------8--|--12----12------|------------------|
--------------|--10------10-----|------------13--|--------------13--|
--------------|------10---------|----------------|--14------14------|
--------------|-----------------|----------------|------15----------|
--7-----------|-----------------|----------------|------------------|
--------------|-----------------|----------------|------------------|


--------------------|---------------------|----------7/8-9-10-11-|
--------------------|-----------------7/8-|--9-10-11-------------|
--------------------|--------7/8-9-10-----|----------------------|
--------------7/8-9-|--10-11--------------|----------------------|
--7/8-9-10-11-------|---------------------|----------------------|
--------------------|---------------------|----------------------|


--12-13-12-11-12-13-12-11-|------------------|------------------|
--------------------------|--5-4-------6-5-4-|--5-4-----------4-|
--------------------------|------7-6-5-------|------7-6-5-6-7---|
--------------------------|------------------|------------------|
--------------------------|------------------|------------------|
--------------------------|------------------|------------------|


------------------|------------------|------------------|------------------|
--5-4-------6-5-4-|--5-4-----------4-|--5-4-------------|----------5-6-5-4-|
------7-6-5-------|------7-6-5-6-7---|------7-6-7-6-5-4-|--5-6-7-8---------|
------------------|------------------|------------------|------------------|
------------------|------------------|------------------|------------------|
------------------|------------------|------------------|------------------|


------------------|------------------|------------------------|
--5-4-------------|----------5-7-8-9-|--10-9----------11-10-9-|
------7-6-7-6-5-4-|--5-6-7-8---------|-------12-11-10---------|
------------------|------------------|------------------------|
------------------|------------------|------------------------|
------------------|------------------|------------------------|


------------------------|------------------------|------------------------|
--10-9----------------9-|--10-9----------11-10-9-|--10-9----------------9-|
-------12-11-10-11-12---|-------12-11-10---------|-------12-11-10-11-12---|
------------------------|------------------------|------------------------|
------------------------|------------------------|------------------------|
------------------------|------------------------|------------------------|


------------------------|------------------------|------------------------|
--10-9------------------|-----------9-10-11-10-9-|--10-9----------------9/|
-------12-11-12-11-10-9-|--10-11-12--------------|-------12-11-10-11-12---|
------------------------|------------------------|------------------------|
------------------------|------------------------|------------------------|
------------------------|------------------------|------------------------|


-----------10-12-13-12-11-|--12-11----------13-12-11-|
--10-12-13----------------|--------15-14-13----------|
--------------------------|--------------------------|
--------------------------|--------------------------|
--------------------------|--------------------------|
--------------------------|--------------------------|


--12-11----------------11-|--12-11----------13-12-11-|--12-11----------9-10-11-|
--------15-14-13-14-15----|--------15-14-13----------|--------15-14-13---------|
--------------------------|--------------------------|-------------------------|
--------------------------|--------------------------|-------------------------|
--------------------------|--------------------------|-------------------------|
--------------------------|--------------------------|-------------------------|


--12--------------|------------------|------------------|------------------|
------------------|------------------|------------------|--5-6-5-4-5-6-5-4-|
--------------5-6-|--7-6-5---5-------|----------5-6-7-8-|------------------|
------6-7-8-9-----|--------9---9-8-7-|--6-7-8-9---------|------------------|
------------------|------------------|------------------|------------------|
------------------|------------------|------------------|------------------|


-----------------|------------------|------------------|--------5-7-8-10-12-|
--5--------------|------------------|------------------|--5-7-9-------------|
-------------5-6-|--7-6-5---5-------|----------5-6-7-8-|--------------------|
-----6-7-8-9-----|--------9---9-8-7-|--6-7-8-9---------|--------------------|
-----------------|------------------|------------------|--------------------|
-----------------|------------------|------------------|--------------------|


--12-11----------13-12-11-|--12-11----------------11-|
--------15-14-13----------|--------15-14-13-14-15----|
--------------------------|--------------------------|
--------------------------|--------------------------|
--------------------------|--------------------------|
--------------------------|--------------------------|


--12-11----------13-12-11-|--12-11----------------11-|--12--------------|
--------15-14-13----------|--------15-14-13-14-15----|------------------|
--------------------------|--------------------------|--------------5-6-|
--------------------------|--------------------------|------6-7-8-9-----|
--------------------------|--------------------------|------------------|
--------------------------|--------------------------|------------------|


------------------|------------------|------------------|-----------------|
------------------|------------------|--5-6-5-4-5-6-5-4-|--5--------------|
--7-6-5---5-------|----------5-6-7-8-|------------------|-------------5-6-|
--------9---9-8-7-|--6-7-8-9---------|------------------|-----6-7-8-9-----|
------------------|------------------|------------------|-----------------|
------------------|------------------|------------------|-----------------|


------------------|------------------|----------------4-|--5-4-------------|
------------------|------------------|--5-6-5-4-5-7-8---|------8-7-8-7-6-5-|
--7-6-5---5-------|----------5-6-7-8-|------------------|------------------|
--------9---9-8-7-|--6-7-8-9---------|------------------|------------------|
------------------|------------------|------------------|------------------|
------------------|------------------|------------------|------------------|


------------------|--5-4-------------|------------------|------------------|
--6-5-4-----------|------8-7-8-7-6-5-|--6-5-4-----------|------------------|
--------7-6-5-4---|------------------|--------7-6-5-4---|------------------|
----------------8-|------------------|----------------8-|--7-8-7-6-7-8-7-6-|
------------------|------------------|------------------|------------------|
------------------|------------------|------------------|------------------|


------------------|------------------|--------------4-4-|--5-------------|
------------------|--5-5-5-5-6-6-6-6-|--5-5-7-7-8-8-----|----------------|
------------------|------------------|------------------|----------------|
--7-8-7-6-7-7-7-7-|------------------|------------------|----------------|
------------------|------------------|------------------|-------7-8-9-10-|
------------------|------------------|------------------|----------------|


------------------|-------------------|------------------|-----------|
------------------|-------------------|----------5-7-8-9-|-----------|
----------5-6-7-8-|-------------------|--5-6-7-8---------|-----------|
--6-7-8-9---------|-----------6-7-8-9-|------------------|--7--------|
------------------|--7-8-9-10---------|------------------|-----------|
------------------|-------------------|------------------|-----------|


--5--------|-----------|------|------|-------|------||
--5--------|-----------|------|------|-------|------||
--5--------|-----------|------|------|-------|------||
-----------|--7--------|------|------|-------|------||
-----------|-----------|------|------|-------|------||
-----------|-----------|------|------|-------|------||
Tap to rate this tab
# A B C D E F G H I J K L M N O P Q R S T U V W X Y Z