Song name
# A B C D E F G H I J K L M N O P Q R S T U V W X Y Z

Nile - Von Unaussprechlichen Kulten tab

I recommend listening to the song for timing, although its really not that hard to understand.

the song is played in drop A, and if you listen to the song, you an figure out the riff 
its pretty simple stuff..

Opening riff
A
|-----------------------------------------------------------------------------|
|-----------------------------------------------------------------------------|
|-----------------------------------------------------------------------------|
|-2~---------------------------3-2-----------/8888----------------------------|
|-2~--0-1-/5/8-8p7---2t5p2--0--3-2--0-1-/5-8-----888877775555-----------------|
|-2~---------------------------3-2---------------------------8888777755553333-|

the second time thru, you play the same thing, just tremelo pick all the notes instead.


Main Riff. B
|---------------------------------------------------------------------------|
|---------------------------------------------------------------------------|
|---------------------------------------------------------------------------|
|-0t2-2--2p0---0t2-2--2p0---0t2-2--2p0---5--3-------------------------------|
|-0t2-2--2p0---0t2-2--2p0---0t2-2--2p0---5--3-------------------------------|
|-0t2-2--2p0---0t2-2--2p0---0t2-2--2p0---5--3-------------------------------|
                                         ...............


this part is basically the same, with one addition. C
|---------------------------------------------------------------------------|
|---------------------------------------------------------------------------|
|---------------------------------------------------------------------------|
|-0t2-2----------0t2-2----------0t2-2-----------5--3------------------------|
|-0t2-2-0-3-0-2--0t2-2-0-3-0-2--0t2-2-0-3-0-2---5--3------------------------|
|-0t2-2-0-3-0-2--0t2-2-0-3-0-2--0t2-2-0-3-0-2---5--3------------------------|
        x x x x        x x x x        x x x x   ..............

after all that jazz, it goes into this little breakdown thing..
GTR 1 D
|-------------------------------------------------------------------------------|
|-------------------------------------------------------------------------------|
|-------------------------------------------------------------------------------|
|-2~-0~-2-3-5-3-2-0-2-2t3-2-0~-2-3-5-3-2-0-2-2t3-2-0~-2-3-5-3-2-0-2-2t3-2-2-----|
|-2~-0~-2-3-5-3-2-0-2-------0~-2-3-5-3-2-0-2-------0~-2-3-5-3-2-0-2-------2-----|
|-2~-0~-2-3-5-3-2-0-2-------0~-2-3-5-3-2-0-2-------0~-2-3-5-3-2-0-2-------2-----|
        x x x x x              x x x x x x            x x x x x           ...


GTR 2 D
this riff is played in the same pattern as above.
|---------------------2s3-2---------|
|---------------------5s6-5---------|
|---------------------4s5-4---------|
|-2~-0~-2-3-5-3-2-0-2-2s3-2-0~------|
|-2~-0~-2-3-5-3-2-0-2-------0~------|
|-2~-0~-2-3-5-3-2-0-2-------0~------|

 Riff E This gets repeated 4x
|------------------------------------------|
|------5-5-3-5-5-------------5-5-3-5-5-----|
|------4-4-2-4-4-------------4-4-2-4-4-----|
|-2s0--2-2-0-2-2--0-2-3-2s0--2-2-0-2-2--0--|
|-2s0-------------0-2-3-2s0-------------0--|
|-2s0-------------0-2-3-2s0-------------0--|
                  X X

dont worry, im not done,
ill tab the rest later, i gotta get some sleep.
this is most of the fun stuff. enjoy till i tab the rest of it.
Tap to rate this tab
 
# A B C D E F G H I J K L M N O P Q R S T U V W X Y Z