Song name
# A B C D E F G H I J K L M N O P Q R S T U V W X Y Z

Nile - Chapter Of Obeisance Before Giving Breath To The Inert One In The Presence Of The Crescent Shaped Ho tab

Chapter of Obeisance Before Giving Breath to the Inert One in the Presence of the 
Shaped Horns
Nile

This isn't the whole song, and it's not the right Nile tuning, but it's just two parts 
it.

Tuning: Standard

4/4

Bridge (2:20)
|E.E.EE.E.E|E.E.EE.E.E|E.E.EE.E.E|E.E.EH    |
|----------|----------|----------|----------|
|----------|----------|----------|----------|
|----------|----------|----------|----------|
|----------|-----7-7-7|----------|-----5----|
|8-7-54-5-4|----------|8-7-54-5-4|----------|
|----------|6-5-6-----|----------|6-5-6-----|

|E.E.EE.E.E|E.E.EE.E.E|E.E.EE.E.E|E.E.EH    |
|----------|----------|----------|----------|
|----------|----------|----------|----------|
|----------|----------|----------|----------|
|----------|-----7-7-7|----------|-----5----|
|8-7-54-5-4|----------|8-7-54-5-4|----------|
|----------|6-5-6-----|----------|6-5-6-----|

5/4         4/4

Outro (3:05)
|EEEEEEEEEE|EEEEEEEE|EEEEEEEE|EEEEEEQ |
|----------|--------|--------|--------|
|----------|--------|--------|-32-----|
|----121---|--------|--121-23|2--3232-|
|-023---320|-0------|23---3--|--------|
|4---------|4-41010-|--------|--------|
|----------|-------3|--------|--------|

| EEEEEEEEE|EEEEEEEE|EEEEEEEE|EEEEEEQ  | x11
|----------|--------|--------|---------|
|o---------|--------|--------|-32-----o|
|----121---|--------|--121-23|2--3232--|
|--23---320|-0------|23---3--|---------|
|o---------|4-41010-|--------|--------o|
|----------|-------3|--------|---------|

Duration Legend
---------------
W - whole; H - half; Q - quarter; E - 8th; S - 16th; T - 32nd; X - 64th; a - acciaccatura
+ - note tied to previous; . - note dotted; .. - note double dotted
Uncapitalized letters represent notes that are staccato (1/2 duration)
Irregular groupings are notated above the duration line
Duration letters will always appear directly above the note/fret number it represents the
duration for.  Duration letters with no fret number below them represent rests.  Multi-
bar rests are notated in the form Wxn, where n is the number of bars to rest for.  Low
melody durations appear below the staff

Tablature Legend
----------------
 h   - hammer-on
 p   - pull-off
 b   - bend
 pb  - pre-bend
 r   - bend release (if no number after the r, then release immediately)
 /\  - slide into or out of (from/to "nowhere")
 s   - legato slide
 S   - shift slide
  - natural harmonic
[n]  - artificial harmonic
n(n) - tapped harmonic
 ~   - vibrato
 tr  - trill
 T   - tap
 TP  - trem. picking
 PM  - palm muting
\n/  - tremolo bar dip; n = amount to dip
 \n  - tremolo bar down
 n/  - tremolo bar up
/n\  - tremolo bar inverted dip
 =   - hold bend; also acts as connecting device for hammers/pulls
 <>  - volume swell (louder/softer)
 x   - on rhythm slash represents muted slash
 o   - on rhythm slash represents single note slash

Misc Legend
-----------
 |  - bar
||  - doublen bar
||o - repeat start
o|| - repeat end
 x? - repeat number of times
*|  - double bar (ending)
 :  - bar (freetime)
 $  - Segno
 &  - Coda
Tempo markers -  = BPM(8/16=s8/s16), where s8 = swing 8ths, s16 = swing 16ths
Tap to rate this tab
# A B C D E F G H I J K L M N O P Q R S T U V W X Y Z