Song name
# A B C D E F G H I J K L M N O P Q R S T U V W X Y Z

Nile - User Maat Re tab

*Note*
this is not my tab! I got it from Rivers of Gore when I noticed that UG didn't have one.


Band: Nile
Album: Annihilation of the Wicked
Song: User-Maat-Re

Copyright (c) Relapse Records, 2005
Version 1.0  12/11/2005 - 16/11/2005

Transcribed By: Andrew Collyer
Contact: immortalshadow666@gmail.com

Code:
. - palm mute           / - slide up to
\ - slide down to       x  Staccato
h - hammer on           p - pull off
, - slight palm mute    () - ghost note, sustained note
" - tremolo note        <> - Trill
L  left channel only   R  right channel only
* - see comment

Suffixes for bend
f - full bend       h - half bend
q - quarter bend    t - tap bend
^ - Hold bend       r - release bend
~ - vibrato bend

Suffixes for harmonic
ph - pinched harmonic   n  natural/artificial harmonic

Tuning A E A D F# B
Acoustic Tuning D A D G B E

Now, there may be some slight errors as always, and the timing
is poor, but it's easy enough to figure out. Best of luck to you.


Acoustic Intro (0:00) play 3 times
|----------------------------------------------------------------------------|
|----------------------------------------------------------------------------|
|---7h8-7--5--5h7---6--3h5p3-------------------------------------------------|
|-------------------------------7--7--5--5h7--4h5--4h5p4--1--4h5p4--1--4-----|
|--5---------------------------5------------------------------------------/5-|
|-0---------------------------0----------------------------------------------|

------------------|
------------------|
------------------|
-------------0----|
-5h6p5--3---0-----|
-----------0------|


Riff 1 (0:46)
|----------------------------------------------------------------|
|----------------------------------------------------------------|
|----------------------------------------------------------------|
|-----------------------------------------------------------7ph--|
|-1--0--3<5-----------------------------------------3h5----------|
|-1--0-------0--5-1-0-5-1-0-5-1-0-5-1-0-5-1-0-5-1-0------0-------|
                . . . . . . . . . . . . . . . . . .

Riff 2 (0:52) play 4 times
|-----------------------------------------------------------------------|
|-----------------------------------------------------------------------|
|-----------------------------------------------------------------------|
|-----------------------------------------------------------------------|
|----3-5-5h7-7-----3-5-5h6--6-6-6h8-8-----3-5-5h7-----0-7-3--0--/9-8-6--|
|-0-------------0----------------------0-----------0--0-7-3--0----------|
     . .           . .      . .           . .      .  . . .  .

Riff 3 (1:13) play 4 times
                                     [1, 3]                         [2]
|---------------------------|---------------|-------------------------|
|---------------------------|---------------|-------------------------|
|---------------------------|---------------|-9-8-5-------------------|
|---------------------------|---------------|-------8-5-4-5-7-5-4-4~~-| gtr 1
|-00-11-00-11-9~-----8~-----|-8--9--12--11--|-------------------------|
|-00-11-00-11-----0------0--|---------------|-------------------------|
  .. .. .. ..                                 . . . . . . . . . .
                                     [1, 3]                         [2]
|-------------17~----16~----|---------------|---------------------15~-|
|---------------------------|---------------|-------------------------|
|---------------------------|---------------|-9-8-5-------------------|
|---------------------------|-8--9--12--11--|-------8-5-4-5-7-5-4-----| gtr 2
|-00-11-00-11---------------|---------------|-------------------------|
|-00-11-00-11-----0------0--|---------------|-------------------------|
  .. .. .. ..                                 . . . . . . . . . .

Riff 1 x 1 (1:42)

Riff 4a (1:48)
|-------------------------------------|
|-------------------------------------|
|-------------------------------------|
|---------11-10----10-6---6-----------|
|-------------------------------------|
|-0--6----------10------6---0-1fb-p0--|
                .           .

Riff 1 x 1 (1:53)

Riff 4b (1:58)
|-----------------------------------------------|
|-----------------------------------------------|
|-----------------------------------------------|
|-----------------------------------------------|
|------------------3"-------------------3ph-h5--|
|-0--6----7"-6"-7"----7"-6"-5"-3"-1--0----------|

|-----------------------------------------------|
|-----------------------------------------------|
|-----------------------------------------------|
|------------------5"---------------------------|
|---------7"-6"-7"----7"-6"-5"-3"-------3ph-h5--|
|-0--6----------------------------1--0----------|

Riff 1 x 1 (2:04)

Riff 4c (2:08)
Part I                      [on second time, harmonise in fifths
                             where applicable]
|--------------------------|-------------------------------------|
|--------------------------|-------------------------------------|
|--------------------------|-------------------------------------|
|--------------------------|-------------------------------------|
|-----------------3-5------|-5fb-r5-3-3h5--------------3-5-------|
|-0--3h4-3--1--0------0--0-|---------------1-0-4-3-1-0-----0--0--|
                      .  .                                 .  .

Part II
|-----------------|----------|
|-----------------|----------|
|-6fb-r3--6-3-3-2-|----------|
|-----------------|----------| gtr 1
|-----------------|----------|
|-----------------|-4-3-1-0--|
       .    .
|-----------------|----------|
|-----------------|----------|
|-----------------|----------|
|-4fb-r1--4-1-1-0-|----------| gtr 2
|-----------------|----------|
|-----------------|-4-3-1-0--|
       .    .


Riff 3 x 1 (2:23)

Riff 5 (2:52)
I
|---------------------------------------|
|---------------------------------------|
|---------------------------------4-----|
|---------------------------------------|
|-5h6p5-6--0--5h6p5-3--1--4-3-1-0----6--|
|-------6--0--------3--1--4-3-1-0----6--|
        .  .        .  .  . . . .

II
|---------------------------------------------|
|---------------------------------------------|
|---------------------------------4-----------|
|---------------------------------------7-----| gtr 1
|-5h6p5-6--0--5h6p5-3--1--4-3-1-0----6-----1--|
|-------6--0--------3--1--4-3-1-0----6-----1--|
        .  .        .  .  . . . .
|---------------------------------------------|
|---------------------------------------------|
|---------------------------------------------|
|---------------------------------------------| gtr 2
|-5h6p5-6--0--5h6p5-3--1--4-3-1-0-6--6--1--1--|
|-------6--0--------3--1--4-3-1-0-6--6--1--1--|
        .  .        .  .  . . . .

III
|--------------------------------------------|
|--------------------------------------------|
|---------------------------------4----------|
|--------------------------------------------| gtr 1
|-5h6p5-6--0--5h6p5-3--1--4-3-1-0----6--6-6--|
|-------6--0--------3--1--4-3-1-0----6--6-6--|
        .  .        .  .  . . . .       .
|--------------------------------------------|
|--------------------------------------------|
|--------------------------------------------|
|--------------------------------------------| gtr 2
|-5h6p5-6--0--5h6p5-3--1--4-3-1-0-6--6--6-6--|
|-------6--0--------3--1--4-3-1-0-6--6--6-6--|
        .  .        .  .  . . . .       .

IV
|----------------------------------|
|----------------------------------|
|----------------------------------|
|----------------------------------| gtr 1
|-5h6p5-6--0--5h6p5-3--1--4-3-1-0--|
|-------6--0--------3--1--4-3-1-0--|
        .  .        .  .  . . . .
|----------------------------------|
|----------------------------------|
|----------------------------------|
|----------------------------------| gtr 2
|-5h6p5-6--0--5h6p5-3--1--4-3-1-0--|
|-------6--0--------3--1--4-3-1-0--|
        .  .        .  .  . . . .

Riff 6 (3:18) play twice  guitar 2 harmonises in fifths second time
|----------------------------------------------------------------------------|
|----------------------------------------------------------------------------|
|-7"-5"-7"-6"----------------------------------------------------------------|
|-------------8"-7"-8"-7"-5"-7"--5"-4"-h5p4----5"-4"----4"-------------------|
|-------------------------------------------5"-------6"----6"-5"-3"-5"-------|
|----------------------------------------------------------------------0"-6"-|

-----------|
-----------|
-----------|
-----------|
-----------|
-0"-6"fbr--|

Riff 7 (3:41) play twice
|----------------------|
|----------------------|
|----------------------|
|----------------------|
|-3------6------2------|
|-1------4------0------|

Riff 8 (4:14)
Play part I 3 times in full.
Play part I 3 times, but on last time, stop at the power chord part.
On third time, harmonise in fifhts
I
|----------------------------------------------------------------|
|----------------------------------------------------------------|
|----------------------------------------------------------------|
|-----------------------4--6--4h6p4------------------------------|
|-5--6--8--9--8h9p8--5---------------6~--5--6--5h6p5--3--0-------|
|--------------------------------------------------------0-------|

II
|----------------------------------------------------------------|
|----------------------------------------------------------------|
|----------------------------------------------------------------|
|----------------------------------------------------------------|
|-5--6--8--9--8h9p8--3--1--3--1--0/1\0---------------------------|
|--------------------3--1--3--1--0/1\0---------------------------|
                        .     .

Riff 3 x 1 (4:57) but much, much slower

Riff 9 (5:30) play twice
I, III
|------------------------------------------------------------------------|
|------------------------------------------------------------------------|
|------------------------------------------------------------------------|
|-------------4h5p4------------------------------------------------------|
|---3h5-5ph---------6-5h6p5-3---3h5-5~--8-8-8--11-11-11--10-10-10--10-10-|
|-0---------0-----------------0---------8-8-8--11-11-11--10-10-10--10-10-|
            .       .                   . .    .  .      .  .  .   .  .

II
|-----------------------------------------------------------------------------|
|-----------------------------------------------------------------------------|
|-----------------------------------------------------------------------------|
|-------------4h5p4-----------------------------------------------------------|
|---3h5-5ph---------6-5h6p5-3---3h5-5~--8-8-8--11-11-11--10-10-10--4-4-4--3-3-|
|-0---------0-----------------0---------8-8-8--11-11-11--10-10-10--4-4-4--3-3-|
            .       .                   . .    .  .      .  .  .   . .    . .
-----------|
-----------|
-----------|
-----------|
-3---------|
-3--1fb-rp-|

IV
|-----------------------------------------------------------------------------|
|-----------------------------------------------------------------------------|
|-----------------------------------------------------------------------------|
|-------------4h5p4-----------------------------------------------------------|
|---3h5-5ph---------6-5h6p5-3---3h5-5~--8-8-8--11-11-11--10-10-10--4-4-4--3-3-|
|-0---------0-----------------0---------8-8-8--11-11-11--10-10-10--4-4-4--3-3-|
            .       .                   . .    .  .      .  .  .   . .    . .
----------------------|
----------------------|
----------------------|
----------------------|
-3--1-1-1--0-0-0--0-0-|
-3--1-1-1--0-0-0--0-0-|
    . .    . .    . .

Riff 2 x 3/4 (6:02) harmonise in fifths last time

Riff 10 (6:24)
|----------------------------------------------------------------|
|----------------------------------------------------------------|
|----------------------------------------------------------------|
|----------------------------------------------------------------|
|-3------6----------------------------------------3--1--0--------|
|-1------4------3--3h4~--0h3~--0--7~--6~--3~--4~--3--1--0--------|
                                                  .  .
Riff 11 (6:46)
|------------------------------------------|
|------------------------------------------|
|------------------------------------------|
|-------------7--6--3--4--3----------------| gtr 1
|-8--9--8--5-----------------6--0-----0----|
|-------------------------------0-----0----|

|------------------------------------------|
|------------------------------------------|
|-------------9--8--5--6--5----------------|
|-8--9--8--5-----------------6-------------| gtr 2
|-------------------------------0-----0----|
|-------------------------------0-----0----|

Riff 10 x 4 (7:01) but not the first two broken chords. Add power chord note
after second time

Riff 12 (8:01) play 4 times  fade out towards end
|---------------------------------------------|
|---------------------------------------------|
|---------------------------------------------|
|---------------------------------------------|
|-----------------------------------1--0------|
|-3"--4"--3"-0"-7"--6"--3"--4"--3"--1--0------|

End (9:14)
Tap to rate this tab
# A B C D E F G H I J K L M N O P Q R S T U V W X Y Z