Song name
# A B C D E F G H I J K L M N O P Q R S T U V W X Y Z

Nile - Sacrifice Unto Sebek tab

----------------------------------------------------------------------------
		              SACRIFICE UNTO SEBEK - Nile
----------------------------------------------------------------------------

Tuning: drop A (A-E-a-D-G-B)
************************************
| /   slide up
| \   slide down
| h   hammer-on
| p   pull-off
| ~   vibrato
| +   harmonic
| x   Mute note
| b   Bend
| pb  Pre-bend
| br  Bend release
| pbr Pre-bend release
| brb Bend release bend
| "   Tremolo picking
************************************
NOTE: this tab is from the original fingering found in this video of Karl Sanders 
playing this song:
http://www.youtube.com/watch?feature=player_profilepage&v=mxItVDuU95Y .
But the rythm part played by Dallas it ear-transcribed.


KARL'S LEAD
B|------------------------|-------------------------------------|
G|------------------------|-------------------------------------|
D|------------------------|----------------------------13-------|
a|------------------------|----------------------------11-------|
E|------------------0-1-0-|------------------0-1-3-1-0-11-0-1-0-|
A|-6-5-3-0-4-3-1-0--0-1-0-|-6-5-3-0-4-3-1-0--0-1-3-1-0-11-0-1-0-|
 PM***************          ***************

DALLAS' RYTHM
B|------------------------|-------------------------------------|
G|------------------------|-------------------------------------|
D|------------------------|-------------------------------------|
a|------------------------|-------------------------------------|
E|------------------0-1-0-|------------------0-1-3-1-0-1-0-1-0--|
A|-6-5-3-0-4-3-1-0--0-1-0-|-6-5-3-0-4-3-1-0--0-1-3-1-0-1-0-1-0--|
 PM***************          ***************


KARL'S LEAD
B|---------------------------|--------------------------------------------|
G|---------------------------|--------------------------------------------|
D|------------------13-14-13-|-----------------13-14-16-14-13-11-13-14-13-|
a|------------------11-12-11-|-----------------11-12-14-12-11-9--11-12-11-|
E|------------------11-12-11-|-----------------11-12-14-12-11-9--11-12-11-|
A|-6-5-3-0-4-3-1-0--11-12-11-|-6-5-3-0-4-3-1-0-11-12-14-12-11-9--11-12-11-|
 PM***************             ***************

DALLAS' RYTHM
B|---------------------------|--------------------------------------------|
G|---------------------------|--------------------------------------------|
D|---------------------------|--------------------------------------------|
a|---------------------------|--------------------------------------------|
E|------------------0-1-0----|------------------0-1-3-1-0-1-0-1-0---------|
A|-6-5-3-0-4-3-1-0--0-1-0----|-6-5-3-0-4-3-1-0--0-1-3-1-0-1-0-1-0---------|
 PM***************             ***************

Then the fill on the snare drum starts at this point.

MAIN RIFF

KARL'S LEAD
B|------------------------------|
G|------------------------------|
D|------------------------------|
a|------------------------------|
E|-3-5-6--4-3-1-0-7-6-4-0-0-1-0-|
A|--------4-3-1-0-7-6-4-0-0-1-0-|
 PM       *********************

DALLAS' RYTHM
B|------------------------------|
G|------------------------------|
D|------------------------------|
a|------------------------------|
E|-3-5-6--4-3-1-0-7-6-4-0-0-1-0-|
A|--------4-3-1-0-7-6-4-0-0-1-0-|
 PM       *********************



VERSE RIFF

KARL'S LEAD
B|--------------------------------|
G|--------------------------------|
D|--------------------------------|
a|--------5-4---------------------|
E|-3-5-6------6-5--3-5-6--4-3-1-0-|
A|------------------------4-3-1-0-|
 PM                       *******


DALLAS' RYTHM
B|--------------------------------|
G|--------------------------------|
D|--------------------------------|
a|--------5-4---------------------|
E|-3-5-6------6-5--3-5-6--4-3-1-0-|
A|------------------------4-3-1-0-|
 PM                       *******


RIFF 2

KARL'S LEAD
B|----------------------------------------------------------------|
G|----------------------------------------------------------------|
D|----------------------------------------------------------------|
a|-"-"-"-"-----------------14/15-"-"-"-"-----------------14/15\14-|
E|-0-1-9-7--9/10-"-"-14/15-12/13-0-1-9-7--9/10-"-"-14/15-12/13\12-|
A|-0-1-9-7--7/8--7/8-12/13-------0-1-9-7--7/8--7/8-12/13----------|
 PM*******       ***             *******       ***

DALLAS' RYTHM
B|----------------------------------------------------------------|
G|----------------------------------------------------------------|
D|----------------------------------------------------------------|
a|-"-"-"-"-----------------14/15-"-"-"-"-----------------14/15\14-|
E|-0-1-9-7--9/10-"-"-14/15-12/13-0-1-9-7--9/10-"-"-14/15-12/13\12-|
A|-0-1-9-7--7/8--7/8-12/13-------0-1-9-7--7/8--7/8-12/13----------|
 PM*******       ***             *******       ***


SHRANK LICK AND RIFF 3

KARL'S LEAD                           
|------------------------------------X2|
|--------------------------------------|
|-8h9-12-8-7---------8h9-8-6-5---------|
|------------12-8-7------------8-6-5-4-|
|--------------------------------------|
|--------------------------------------|


DALLAS' RYTHM
|------------------------------------X2|
|--------------------------------------|
|-8h9-12-8-7---------8h9-8-6-5---------|
|------------12-8-7------------8-6-5-4-|
|--------------------------------------|
|--------------------------------------|


RIFF 4

KARL'S LEAD
|----------------------------------------------------------------------X2-|
|-------------------------------------------------------------------------|
|-------------------------------------------------------------------------|
|-11-12-11----6-7-6-------------------6-7-6---11-12-11--------------------|
|----------13-------8---------4-3-1-0-------8----------13---------4-3-1-0-|
|---------------------9-8-7-6-4-3-1-0---------------------9-8-7-6-4-3-1-0-|
 PM                   ***************                     ***************

DALLAS' RYTHM
|----------------------------------------------------------------------X2-|
|-------------------------------------------------------------------------|
|-------------------------------------------------------------------------|
|-11-12-11----6-7-6-------------------6-7-6---11-12-11--------------------|
|----------13-------8---------4-3-1-0-------8----------13---------4-3-1-0-|
|---------------------9-8-7-6-4-3-1-0---------------------9-8-7-6-4-3-1-0-|
 PM                   ***************                     ***************



TO BE CONTINUED........
Tap to rate this tab
 
# A B C D E F G H I J K L M N O P Q R S T U V W X Y Z