Nile - User-maat-re tab

_________________________________________________________________________
                            Nile - User-Maat-Re
                         Annihilation of the Wicked
_________________________________________________________________________


Sorry i did this tab in ASCII, but my guitar pro didn't want to save the file  :(


Duration Legend
---------------
W - whole
H - half
Q - quarter
E - 8th
S - 16th
T - 32nd
X - 64th
. - note dotted
|-n-|  - n-tuplets

Tablature Legend
----------------
x - dead note
g - grace note
(n) - ghost note
> - accentuded note
NH - natural harmonic
TH - tapped harmonic
PH - pitch harmonic
h - hammer on
p - pull off
b - bend
br - bendRelease
pb - preBend
pbr - preBendRelease
brb - bendReleaseBend
/ - slide
~ - vibrato
W - wide vibrato
tr - trill
TP - tremolo picking
T - tapping
S - slap
P - pop
< - fade in
^ - brush up
v - brush down

**********
**********
**80 BPM**
**********
**********

       T T S S E.  E.Q  E   S    S E.   T T E  E.  E   Q      
B ||--------------------------|------------------------------|
F#||--------------------------|------------------------------|
D ||*------7-8-7---5/7--6~--3-|--5-3~------------------------|
A ||*-------------------------|-------------7--7---5s--7~----|
E ||-----5--------------------|-----------5------------------|
A ||---0----------------------|---------0--------------------|


                                                          
                   |--3--|                              ^       
  S E  S S S E.   E  E  E  E.     H          S S S Q    S  
-------------------------------|---------------------------||
-------------------------------|---------------------------||
-------------------------------|--------------------------*||
--4/5--4-5-4-1~---4--5--4--1---|--4~--------------------0-*||
-------------------------------|------------/5-6-5-3----0--||
-------------------------------|------------------------0--||



Tap to rate this tab
 
# A B C D E F G H I J K L M N O P Q R S T U V W X Y Z