Song name
# A B C D E F G H I J K L M N O P Q R S T U V W X Y Z

Nile - Dusk Falls Upon The Temple Of The Serpent On The Mount Of Sunrise tab

Band:  Nile
Album: Annihilation of the Wicked
Song:  Dusk Falls Upon The Temple Of The Serpent On The Mount Of Sunrise



.  - palm mute           /  - slide up to
\  - slide down to       ~  - vibrato
h  - hammer on           b  - Bend
p  - pull off            Suffixes for bend
t  - tap                 f  - full bend    h - half bend
ph - pinched harmonic    q  - quarter bend t - tap bend
*  - see comment         ^  - Hold bend    r release bend
x  - Stuccatto           ~  - vibrato bend
,  - slight palm mute    () - ghost note, sustained note
"  - tremolo note        <> - Trill

Tuning Standard: E-A-D-G-B-E

Note: This song is meant to be played in a free way. This tab does not represent 
perfectly what is on the recording, this tab is just a rough sketch of the notes to be played. 
Interpretation is up to the player.



0:00

|----------------------------------------------------------------------------|
|--5-6-8-10-8-10~---10-10---8-8-88-\-6-8-10-8--6-8-6-5-3-5-5h6p5h6p5-3/5-5~-|
|----------------------------------------------------------------------------|
|----------------------------------------------------------------------------|
|----------------------------------------------------------------------------|
|----------------------------------------------------------------------------|



0:10     (pick harder)

|--8-7-5-8~--8-7-5-7-8-8-8-8-0-0-7-0-0-5-0-0-7-0-0-3-0-0-5-0-0-7-0-0-3-0-0-5-|
|----------------------------------------------------------------------------|
|----------------------------------------------------------------------------|
|----------------------------------------------------------------------------|
|----------------------------------------------------------------------------|
|----------------------------------------------------------------------------|



0:15

(gradually pick harder)

|-5-5-5~--05-5-5-5-5-5-5-5-5~------------------------------------------------|
|------------------------------------------3h5-3-1-3-5-3-1-3-1-0-1-0---------|
|--------------------------------------------------------------------2~------|
|----------------------------------------------------------------------------|
|----------------------------------------------------------------------------|
|----------------------------------------------------------------------------|



0:23 - 0:24  (pick harder)

|-3h5-3-7-5-3h5-5-5-5~-----0-5-5-0-5-5-0-55555~-----8~--7-8-7-8~-------------|
|----------------------------------------------------------------------------|
|----------------------------------------------------------------------------|
|----------------------------------------------------------------------------|
|----------------------------------------------------------------------------|
|----------------------------------------------------------------------------|



0:32

|----------------------------------------------------------------------------|
|--5-6-8-10-8-10~---10-10---8-8-88-\-6-8-10-8--6-8-6-5-3-5-5h6p5h6p5-3/5-5~-|
|----------------------------------------------------------------------------|
|----------------------------------------------------------------------------|
|----------------------------------------------------------------------------|
|----------------------------------------------------------------------------|



0:41    (soft picking)

|---------------------------------------------------------------------------|
|---------------------------------------------------------------------------|
|--2----5~------------------------------------------------------------------|
|---------------------------------------------------------------------------|
|---------------------------------------------------------------------------|
|---------------------------------------------------------------------------|

End.
Tap to rate this tab
 
# A B C D E F G H I J K L M N O P Q R S T U V W X Y Z