Song name
# A B C D E F G H I J K L M N O P Q R S T U V W X Y Z

Nile - Black Flames tab

Nile - Black Flames

Version 1.0

Tabbed by Vincent

Tune your Guitar about to step lower

Intro Riff                                       ___________1.___________2.  
|------------------------------------------------------------|------------|
|------------------------------------------------------------|------------|
|--------------------------------------------b-----b---------|---b--------|
|------9--10--10/14--14~----9h10-9~----7--9--9-----8---------|---8--------|
|------------------------------------------------------------|--------9---|
|-2-----------------------------------------------------3--3-|------------|
|-0-----------------------------------------------------1--1-|------------|

Long Riff before the slowly part (not completed...sorry)
|------------------------------------------------------------------|
|------------------------------------------------------------------|
|------------------------------------------------------------------|
|---------------------------------------------777766664444---------|
|-------------99998888----8888------------4444------------77776666-|
|-000066667777--------6666----777700007777-------------------------|


|---------------------------------------------------------------------------------|
|---------------------------------------------------------------------------------|
|---------------------------------------------------------------------------------|
|---------------------------------------------------------------------------------|
|-------------88889999----9999------------1111111----1111111112121212111111119999-|
|-000066667777--------7777----777700009999-------9999-----------------------------|


The slowly Riff:
|---------|
|-*---*---|
|-6---5---|
|---------|
|-6---5---|
|-6---5---|

if you have any questions, comment please feel free to contact me at
gerbeoflife@aol.com
Tap to rate this tab
 
# A B C D E F G H I J K L M N O P Q R S T U V W X Y Z