Guitaretab - guitar tabs
Song name
# A B C D E F G H I J K L M N O P Q R S T U V W X Y Z

Nile - Sacrifice Unto Sebek tab

Band: Nile
Album: Annihilation of the Wicked
Song: Sacrifice Unto Sebek

Copyright (c) Relapse Records, 2005


Code:
. - palm mute           / - slide up to
\ - slide down to       x  Staccato
h - hammer on           p - pull off
, - slight palm mute    () - ghost note, sustained note
" - tremolo note        <> - Trill
L  left channel only   R  right channel only
* - see comment

Suffixes for bend
f - full bend       h - half bend
q - quarter bend    t - tap bend
^ - Hold bend       r - release bend
~ - vibrato bend

Suffixes for harmonic
ph - pinched harmonic   n  natural/artificial harmonic

Tuning A E A D F# B

Note: As you can see, it took us that many months to get this cunt finished,
that I can't even remember the exact dates, hahaha. If you have any questions
regarding the tab, it's best to contact either Tim or myself (Andrew) as we
did most of the tab (not to undermine Alex and John's contributions though).
Enjoy, and best of luck.



 Riff 1a (0:00)
   Gtr.1
||-------------------------------------------------------------------------|
||.------------------------------------------------------------------------|
||-------------------------------------------------------------------------|
||.------------------------0~----------------------------------------------|
||-0-5-4-4-0-5-4-1-0~--1~--0~---------------5-4-4---5-4-1-0~-1-/3--1--0-3--|
||-0-5-4-4-0-5-4-1-0~--1~--0~-------------0-5-4-4-0-5-4-1-0~-1-/3--1--0----|
|| . . . . . . . .                        . . . . . . . .                  |
|| Gtr.2                                                                   |
||-------------------------------------------------------------------------|
||.------------------------------------------------------------------------|
||-------------------------------------------------------------------------|
||.------------------------0~-------------------------------------------5--|
||-0-5-4-4-0-5-4-1-0~--1~--0~---------------5-4-4---5-4-1-0~-1-/3--1--0----|
||-0-5-4-4-0-5-4-1-0~--1~--0~-------------0-5-4-4-0-5-4-1-0~-1-/3--1--0----|
   . . . . . . . .                        . . . . . . . .
 *Second Time Play Notes In Brackets

 Riff 1a - Cont. (0:09)
  Gtr.1&2
 |-----------------------|
 |-----------------------|
 |-----------------------|
 |-----------------------|
 |-0--1--0~--------------|
 |-0--1--0~--------------|

Riff 1b (0:14)
   Gtr.1
||-------------------------------------------------------------------------|
||.------------------------------------------------------------------------|
||-------------------------------------------------------------------------|
||.------------------------0~-------------------------------------------5--|
||-0-5-4-4-0-5-4-1-0~--1~--0~---------------5-4-4---5-4-1-0~-1-/3--1--0----|
||-0-5-4-4-0-5-4-1-0~--1~--0~-------------0-5-4-4-0-5-4-1-0~-1-/3--1--0----|
|| . . . . . . . .                        . . . . . . . .                  |
|| Gtr.2                                                                   |
||-------------------------------------------------------------------------|
||.------------------------------------------------------------------------|
||-------------------------------------------------------------------------|
||.------------------------0~----------------------------------------------|
||-0-5-4-4-0-5-4-1-0~--1~--0~---------------5-4-4---5-4-1-0~-1-/3--1--0-3--|
||-0-5-4-4-0-5-4-1-0~--1~--0~-------------0-5-4-4-0-5-4-1-0~-1-/3--1--0----|
|| . . . . . . . .                        . . . . . . . .                  |
||                                                                         |
|| Gtr.3                                                                   |
||-------------------------------------------------------------------------|
||.------------------------------------------------------------------------|
||-----------------12~-13~-12~----------------------------2~-3-/5--3--2----|
||.---------------------------------------------------------------------5--|
||-0-5-4-4-0-5-4-1--------------------------5-4-4---5-4-1------------------|
||-0-5-4-4-0-5-4-1------------------------0-5-4-4-0-5-4-1------------------|
   . . . . . . . .                        . . . . . . . .

 Riff 1b - Cont. (0:23)
  Gtr.1
 |-----------------------|-----------------------||
 |----------------------.|-----------------------||
 |-----------------------|-------------||
 |----------------------.|-----------------------||
 |-0---1---0~------------|-----------------------||
 |-0---1---0~------------|-----------------------||

 Gtr.2
 |-----------------------|-----------------------||
 |----------------------.|-----------------------||
 |-----------------------|-------------||
 |----------------------.|-----------------------||
 |-12~-13~-12~-----------|-----------------------||
 |-----------------------|-----------------------||

 Riff 2 (0:31)
   Gtr.1
||-----------------------------------------------------------------|
||-----------------------------------------------------------------|
||-----------------------------------------------------------------|
||-----------------------------------------------------------------|
||-5/6---------0--------------3-5-6~---------0--------------3-5-6~-|
||-----4-3-1-0---5-4-1-0h1p0~--------4-3-1-0---5-4-1-0h1p0~--------|
||     . . . . . . . .               . . . . . . . .               |
|| Gtr.2                                                           |
||-----------------------------------------------------------------|
||-----------------------------------------------------------------|
||-----------------------------------------------------------------|
||-----------------------------------------------------------------|
||----------------------------3-5-6~---------0--------------3-5-6~-|
||-----------------------------------4-3-1-0---5-4-1-0h1p0~--------|
                                     . . . . . . . .
 Riff 2 (Cont.)
  Gtr.1&2
 |------------------------------------------------------|
 |------------------------------------------------------|
 |------------------------------------------------------|
 |------------------------------------------------------|
 |---------0--------------3-5-6~---------0--------------|
 |-4-3-1-0---5-4-1-0h1p0~--------4-3-1-0---5-4-1-0h1p0~-|
   . . . . . . . .               . . . . . . . .
 Riff 2 (Cont.)
   Gtr.1
 |------------------------------------------------------------||
 |.---------------------------------------.||
 |------------------------------------------------------------||
 |.-------5-4--------------------------5-4-------------------.||
 |-3-5-6~-----6-5-3-5-6~-----0~-3-5-6~-----6-5-3-5-6~-----0~--||
 |-----------------------4-1-0~-----------------------4-1-0~--||


Riff 3a (0:46)
|-----------------------------------|
|-----------------------------------|
|-------------------------9/10------|
|---------4-3-----7/8-----7/8-------|
|-0-1-0-6-----6-5-5/6-7-6------5-6--|
|-0-1-0-6-------------7-6-----------|

[ Tab from: http://www.guitaretab.com/n/nile/71880.html ]
Riff 3b (0:49)
|--------------------------------------|
|--------------------------------------|
|-------------------------9/10---------|
|---------4-3-----7/8-----7/8----------| gtr 1
|-0-1-0-6-----6-5-5/6-7-6------6-5-6~--|
|-0-1-0-6-------------7-6--------------|

|--------------------------------------|
|--------------------------------------|
|-------------------------9/10-8-7-8~--|
|---------4-3-----7/8-----7/8----------| gtr 2
|-0-1-0-6-----6-5-5/6-7-6--------------|
|-0-1-0-6-------------7-6--------------|
                                       

Riff 4 (0:53) play twice
|---------------------------------------|
|---------------------------------------|
|---------------------------------------|
|---------------------------------------| gtr 1
|-6-7-4-6---4-----6~--6-4-3---------6~--|
|---------8---7-9-----------8-7-4-7-----|
  . . . . . . . .     . . . . . . .
|---------------------------------------|
|---------------------------------------|
|-8-9-6-8---6-----8~--8-6-5---------8~--|
|---------8---7-9-----------8-7-4-7-----| gtr 2
|---------------------------------------|
|---------------------------------------|
  . . . . . . . .     . . . . . . .


Riff 5a (0:59)
                                [x2]
|----------------------------------|--------------------------------
|----------------------------------|--------------------------------
|----------------------------------|--------------------------------
|-11/12-----6/7--------------------|-------6/7-----11/12------------
|-9-/10-0-7-4/5-0-7-9\8-5\4-4-4-1--|-1-4-4-4/5-0-7-9-/10-0-7-4-4-1--
|-------0-7-----0-7---------4-4-1--|-1-4-4-----0-7-------0-7-4-4-1--
        . .     . .         . . .    . . .     . .       . . . . .

----------------------------------------------------|
----------------------------------------------------|
----------------------------------------------------|
-6/7-----11/12-----11/12-----6/7--------------------|
-4/5-0-7-9-/10-0-7-9-/10-0-7-4/5-0-7-9\8-5\4-4-4-1--|
-----0-7-------0-7-------0-7-----0-7---------4-4-1--|
     . .       . .       . .     . .         . . .

Riff 5b (1:07)
|----------------------------------|
|----------------------------------|
|----------------------------------|
|-11/12-----6/7--------------------|
|-9-/10-0-7-4/5-0-7-9\8-5\4-4-4-1--|
|-------0-7-----0-7---------4-4-1--|
        . .     . .         . . .   


Riff 6a (1:09) play twice
|----------------------------------|
|----------------------------------|
|-8-9-6-8---6-----6-5-----5-4------|
|---------8---7-9-----8-7-----7-6--| gtr 1
|----------------------------------|
|----------------------------------|
  . . . . . . . . . . . . . . . .
|-11129-11--9-----9-8-----8-7------|
|---------10--1012----1110----109--|
|----------------------------------|
|----------------------------------| gtr 2
|----------------------------------|
|----------------------------------| 
  . . . . . . . . . . . . . . . .

Riff 6b (1:12)
|----------------------------------|
|----------------------------------|
|-8-9-6-8---6-----8-9-6-8---6------|
|---------8---7-9---------8---7-9--| gtr 1
|----------------------------------|
|----------------------------------|
  . . . . . . . . . . . . . . . .
|-11129-11--9-----11129-11--9-------|
|---------10--1012--------10--1012--|
|-----------------------------------|
|-----------------------------------| gtr 2
|-----------------------------------|
|-----------------------------------| 
  . . . . . . . . . . . . . . . .

Riff 6a x 1/2 (1:14)
Riff 2 x 1 (1:16)

Riff 7 (1:30) play twice
I
|--------------------------------------------------------|
|--------------------------------------------------------|
|---------14h17-17~-14h15-15~-13h14p13-------------------|
|--------------------------------------16-15-------------| gtr 1
|-0-0-0-0------------------------------------17-16-<13>~-|
|-0-0-0-0------------------------------------------------|
  . . . .                              .  .  .  .
|---------------------------------------------------------|
|---------------------------------------------------------|
|---------------------------------------------------------|
|---------12h15-15~--12h15-12h13-11h12p11-----------------| gtr 2
|-0-0-0-0---------------------------------13-12-10-9------|
|-0-0-0-0--------------------------------------------12ph-|
  . . . .                                 .  .  .  .

II
|--------------------------------------------------------|
|--------------------------------------------18-18-18-18-|
|---------14h17-17~-14h15-15~-13h14p13-------15-15-15-15-|
|--------------------------------------16-15-15-15-15-15-| gtr 1
|-0-0-0-0------------------------------------------------|
|-0-0-0-0------------------------------------------------|
  . . . .                              .  .
|-----------------------------------------------------------|
|-----------------------------------------------------------|
|-----------------------------------------------13-13-13-13-|
|----------12h15-15~--12h15-12h13-11h12p11------------------| gtr 1
|-0-0-0-0---------------------------------13-12-11-11-11-11-|
|-0-0-0-0---------------------------------------------------|
  . . . .                                 .  .


Riff 8 (1:45) play twice
I, III
|----------------------------------------|
|----------------------------------------|
|----------------------------------------|
|----------------------------------------|
|---------58888888566666665\4-----5-4-1--|
|-00000000--------------------8-7-5-4-1--|
  ........................    . . . .

II
|--------------------------------------------------|
|--------------------------------------------------|
|--------------------------------------------------|
|--------------------------------------------------|
|---------58888888566666665\4-----4444444444444444-|
|-00000000--------------------8-7------------------|
  ........................    . .

IV
|---------------------------------------------|
|---------------------------------------------|
|---------------------------------------------|
|---------------------------------6--6--6--6--| gtr 1
|---------58888888566666665\4-----------------|
|-00000000--------------------8-7-------------|
  ........................    . .

|---------------------------------------------|
|---------------------------------------------|
|---------------------------------8--8--8--8--|
|---------------------------------------------| gtr 2
|---------58888888566666665\4-----------------|
|-00000000--------------------8-7-------------|
  ........................    . .


Riff 2 x 1 (1:59)

Riff 9 (2:13)
|------------------------------------------------------------|
|------------------------------------------------------------|
|------------------------------------------------------------|
|--------5-4--------------------------5-4--------------------| gtr 1
|-3-5-6~-----6-5-3-5-6~-----0~-3-5-6~-----6-5-3-5-6~-----0~--|
|-----------------------4-1-0~-----------------------4-1-0~--|

|------------------------------------------------------------|
|--------8-7--------------------------8-7--------------------|
|-5-7-8~-----8-7-5-7-8~--------5-7-8~-----8-7-5-7-8~---------|
|-----------------------6-3--------------------------6-3-----| gtr 2
|---------------------------0~---------------------------0~--|
|---------------------------0~---------------------------0~--|

Riff 1 x 1 (2:21)
Guitar ends (2:51)
End of song (3:02)
Related for Sacrifice Unto Sebek tab