Guitaretab - guitar tabs
Song name
# A B C D E F G H I J K L M N O P Q R S T U V W X Y Z

Nile - Annihilation Of The Wicked tab

Band - Nile
Song - Annihilation Of The Wicked
Album - Annihilation Of The Wicked ( 2005 Relapse Records )
Transcribed By - Killswitch_Mike
Metallica_MadMike@hotmail.com
Tuning - Drop A [ A-E-A-D-F#-B ]


Before Anyone says...
- Yes I did get help from Karl Sanders On This Tab, from The Nile Forums.
- Karl Helped With The Lead Intro
- Sam Helped With The Main Intro, The Rest Is All By Me.
- This Tab Is Incomplete Though I Am Working Very Hard To Finish It.


Many Thanks, To Karl Sanders & Sam Lamming For Helping With Parts.

Riff A

[Dallas & Karl]

B||-------------------------------------------------------------------||
F#|-------------------------------------------------------------------||
D||-------------------------------------------------------------------||
A||-------------------------------------------------------------------||
E||-------------------------------------------------------------------||
A||---0-0-0-0-1-1-1-1-0-0-0-0---4-4-4-4-3-3-3-3-1-1-1-1---------------||

B||-------------------------------------------------------------------||
F#|-------------------------------------------------------------------||
D||-------------------------------------------------------------------||
A||-------------------------------------------------------------------||
E||---6-6-6-6-5-5-5-5-3-3-3-3---8-9-8-8-8-8-6-6-6-6-------------------||
A||-------------------------------------------------------------------||

B||-------------------------------------------------------------------||
F#|-------------------------------------------------------------------||
D||-------------------------------------------------------------------||
A||---6-7-6-6-6-6----------11-12-11-11-11-11--------------------------||
E||-----------------8-8-8-8------------------13-13-13-13--------------||
A||-------------------------------------------------------------------||

B||-------------------------------------------------------------------||
F#|--10-10-10-10------10------10----9---9------10-10- 10--10---------||
D||---9- 9- 9 9-------9-------9----8---8-------9---9---9---9---------||
A||---7- 7- 7 7---0---7---0---7----6---6---0---7---7---7---7--0------||
E||---7- 7- 7 7---0---7---0---7----6---6---0---7---7---7---7--0------||
A||---7- 7- 7 7---0---7---0---7----6---6---0---7---7---7---7--0------||
PM                 _       _                _                  _


Riff B

[Karl]

       Half Bend            Half Bend
           ^                    ^
B||-------------------------------------------------------------------||
F#|-----12b-r----------------12b-r------------------------------------||
D||---9--------------------9------------------------------------------||
A||---x--------------------x------------------------------------------||
E||---7--------------------7------------------------------------------||
A||-----------12/1---1/7------------12/1------------------------------||

B||-------------------------------------------------------------------||
F#|-------------------------------------------------------------------||
D||-------7----9----10----9---13---10----9----7-----------------------||
A||-------------------------------------------------------------------||
E||-------------------------------------------------------------------||
A||---7h8----7----7----7----9----7----7----7--------------------------||

Half Bend            Half Bend
           ^                    ^
B||-------------------------------------------------------------------||
F#|-----12b-r----------------12b-r------------------------------------||
D||---9--------------------9------------------------------------------||
A||---x--------------------x------------------------------------------||
E||---7--------------------7------------------------------------------||
A||-----------12/1---1/7------------12/1------------------------------||

B||----------------------------------------------------------------------||
F#|----------------------------------------------------------------------||
D||-------7----9----10----9---13---10----9----7--------------------------||
A||----------------------------------------------------------------------||
E||----------------------------------------------------------------------||
A||---7h8----7----7----7----9----7----7----7-----------------------------||


[Dallas]

B||----------------------------------------------------------------------||
F#|--10------------------------------------------------------------------||
D||---9------------------------------------------------------------------||
A||---7------------------------------------------------------------------||
E||---7------------------------------------------------------------------||
A||---7------------------------------------------------------------------||


B||----------------------------------------------------------------------||
F#|----------------------------------------------------------------------||
D||----------------------------------------------------------------------||
A||----------------------------------------------------------------------||
E||----------------------------------------------------------------------||
A||----------------------------------------------------------------------||


Riff C

[Karl]

       Half Bend            Half Bend
          ^                    ^
B||----------------------------------------------------------------------||
F#|-----12b-r----------------12b-r---------------------------------------||
D||---9--------------------9---------------------------------------------||
A||---x--------------------x---------------------------------------------||
E||---7--------------------7---------------------------------------------||
A||----------------------------------------------------------------------||

B||----------------------------------------------------------------------||
F#|-----12b-r------------------------------------------------------------||
D||---9------------------------------------------------------------------||
A||---x------------------------------------------------------------------||
E||---7------------------------------------------------------------------||
A||----------------------------------------------------------------------||

[Dallas]

B||----------------------------------------------------------------------||
F#|----------------------------------------------------------------------||
D||----------------------------------------------------------------------||
A||---777-777-777-777-777-777--7h8-8---777-777-777-777-777-777---7h6-6-6-||
E||---777-777-777-777-777-777--7h8-8---777-777-777-777-777-777---7h6-6-6-||
A||---777-777-777-777-777-777--7h8-8---777-777-777-777-777-777---7h6-6-6-||
PM    ___ ___ ___ ___ ___ ___          ___ ___ ___ ___ ___ ___

B||----------------------------------------------------------------------||
F#|----------------------------------------------------------------------||
D||----------------------------------------------------------------------||
A||---777-777-777-777-777-777--7h8-8---777-777-777-777-777-777---7h6-6-6-||
E||---777-777-777-777-777-777--7h8-8---777-777-777-777-777-777---7h6-6-6-||
A||---777-777-777-777-777-777--7h8-8---777-777-777-777-777-777---7h6-6-6-||
PM    ___ ___ ___ ___ ___ ___          ___ ___ ___ ___ ___ ___

[Karl]


B||-----------------------------------------------------------------------||
F#|---13~---15~---16~---15~---13~---19~---18~---16~---15~---13~-----------||
D||---12~---14~---15~---14~---12~---18~---17~---15~---14~---12~-----------||
A||---10~---12~---13~---12~---10~---16~---15~---13~---12~---10~-----------||
E||---10~---12~---13~---12~---10~---16~---15~---13~---12~---10~-----------||
A||---10~---12~---13~---12~---10~---16~---15~---13~---12~---10~-----------||

[Dallas]

B||-----------------------------------------------------------------------||
F#|---13~~---15~~---16~~---15~~---13~~---19~~---18~~---16~~---15~~---13~~-||
D||-----------------------------------------------------------------------||
A||-----------------------------------------------------------------------||
E||-----------------------------------------------------------------------||
A||-----------------------------------------------------------------------||

[Karl]

       Half Bend            Half Bend
           ^                    ^
B||-----------------------------------------------------------------------||
F#|-----12b-r----------------12b-r----------------------------------------||
D||---9--------------------9----------------------------------------------||
A||---x--------------------x----------------------------------------------||
E||---7--------------------7----------------------------------------------||
A||-----------------------------------------------------------------------||

B||-----------------------------------------------------------------------||
F#|-----12b-r-------------------------------------------------------------||
D||---9-------------------------------------------------------------------||
A||---x-------------------------------------------------------------------||
E||---7-------------------------------------------------------------------||
A||-----------------------------------------------------------------------||

[Dallas]


B||-----------------------------------------------------------------------||
F#|-----------------------------------------------------------------------||
D||-----------------------------------------------------------------------||
A||---777-777-777-777-777-777--7h8-8---777-777-777-777-777-777---7h6-6-6--||
E||---777-777-777-777-777-777--7h8-8---777-777-777-777-777-777---7h6-6-6--||
A||---777-777-777-777-777-777--7h8-8---777-777-777-777-777-777---7h6-6-6--||
PM    ___ ___ ___ ___ ___ ___          ___ ___ ___ ___ ___ ___


B||-----------------------------------------------------------------------||
F#|-----------------------------------------------------------------------||
D||-----------------------------------------------------------------------||
A||---777-777-777-777-777-777--7h8-8---777-777-777-777-777-777---7h6-6-6--||
E||---777-777-777-777-777-777--7h8-8---777-777-777-777-777-777---7h6-6-6--||
A||---777-777-777-777-777-777--7h8-8---777-777-777-777-777-777---7h6-6-6--||
PM    ___ ___ ___ ___ ___ ___          ___ ___ ___ ___ ___ ___

[Karl]

B||-----------------------------------------------------------------------||
F#|---13~---15~---16~---15~---13~---19~---18~---16~---15~---13~-----------||
D||---12~---14~---15~---14~---12~---18~---17~---15~---14~---12~-----------||
A||---10~---12~---13~---12~---10~---16~---15~---13~---12~---10~-----------||
E||---10~---12~---13~---12~---10~---16~---15~---13~---12~---10~-----------||
A||---10~---12~---13~---12~---10~---16~---15~---13~---12~---10~-----------||

[Dallas]

B||-----------------------------------------------------------------------||
F#|---13~~---15~~---16~~---15~~---13~~---19~~---18~~---16~~---15~~---13~~-||
D||-----------------------------------------------------------------------||
A||-----------------------------------------------------------------------||
E||-----------------------------------------------------------------------||
A||-----------------------------------------------------------------------||


Riff D


[Karl & Dallas]

B||-----------------------------------------------------------------------||
F#|------------14*b-14*b---------------------------15*b-15*b---------9----||
D||------------------------------------------------------------------8----||
A||---0-0-0-0------------0-0-0-0-0h1-1-1---0-0-0-0------------0-0-0-6----||
E||---0-0-0-0------------0-0-0-0-0h1-1-1---0-0-0-0------------0-0-0-6----||
A||---0-0-0-0------------0-0-0-0-0h1-1-1---0-0-0-0------------0-0-0-6----||
PM    _ _ _ _            _ _ _ _           _ _ _ _            _ _ _

B||-----------------------------------------------------------------------||
F#|------------14*b-14*b---------------------------15*b-15*b---------9----||
D||------------------------------------------------------------------8----||
A||---0-0-0-0------------0-0-0-0-0h1-1-1---0-0-0-0------------0-0-0-6----||
E||---0-0-0-0------------0-0-0-0-0h1-1-1---0-0-0-0------------0-0-0-6----||
A||---0-0-0-0------------0-0-0-0-0h1-1-1---0-0-0-0------------0-0-0-6----||
PM    _ _ _ _            _ _ _ _           _ _ _ _            _ _ _

B||-----------------------------------------------------------------------||
F#|------------14*b-14*b---------------------------15*b-15*b---------9----||
D||------------------------------------------------------------------8----||
A||---0-0-0-0------------0-0-0-0-0h1-1-1---0-0-0-0------------0-0-0-6----||
E||---0-0-0-0------------0-0-0-0-0h1-1-1---0-0-0-0------------0-0-0-6----||
A||---0-0-0-0------------0-0-0-0-0h1-1-1---0-0-0-0------------0-0-0-6----||
PM    _ _ _ _            _ _ _ _           _ _ _ _            _ _ _
[ Tab from: http://www.guitaretab.com/n/nile/77533.html ]
B||-----------------------------------------------------------------------||
F#|------------14*b-14*b---------------------------15*b-15*b---------9----||
D||------------------------------------------------------------------8----||
A||---0-0-0-0------------0-0-0-0-0h1-1-1---0-0-0-0------------0-0-0-6----||
E||---0-0-0-0------------0-0-0-0-0h1-1-1---0-0-0-0------------0-0-0-6----||
A||---0-0-0-0------------0-0-0-0-0h1-1-1---0-0-0-0------------0-0-0-6----||
PM    _ _ _ _            _ _ _ _           _ _ _ _            _ _ _


Riff E

[Karl & Dallas]


B||-----------------------------------------------------------------------||
F#|--10-11-10/4-11-10-10-11---13~-----------------------------------||
D||---9-10---9/3-10---9---9-10---12~-----------------------------------||
A||---7---8---7/1---8---7---7---8---10~-----------------------------------||
E||---7---8---7/1---8---7---7---8---10~-----------------------------------||
A||---7---8---7/1---8---7---7---8---10~-----------------------------------||

B||-----------------------------------------------------------------------||
F#|--10-11-10-----------------------------------------------------------||
D||---9-10---9-----------------------------------------------------------||
A||---7---8---7---7/1----7------------------------------------------------||
E||---7---8---7---7/1------11-11------------------------------------------||
A||---7---8---7---7/1------------15---15b---------------------------------||

B||--------------------------------------------------------------------||
F#|--10-11-10/4-11-10-10-11---13~--------------------------------||
D||---9-10---9/3-10---9---9-10---12~--------------------------------||
A||---7---8---7/1---8---7---7---8---10~--------------------------------||
E||---7---8---7/1---8---7---7---8---10~--------------------------------||
A||---7---8---7/1---8---7---7---8---10~--------------------------------||

B||--------------------------------------------------------------------||
F#|--10-11-10--------------------------------------------------------||
D||---9-10---9--------------------------------------------------------||
A||---7---8---7---7/1----7---------------------------------------------||
E||---7---8---7---7/1------11-11---------------------------------------||
A||---7---8---7---7/1------------15---15b------------------------------||

B||--------------------------------------------------------------------||
F#|--10-11-10/4-11-10-10-11---13~--------------------------------||
D||---9-10---9/3-10---9---9-10---12~--------------------------------||
A||---7---8---7/1---8---7---7---8---10~--------------------------------||
E||---7---8---7/1---8---7---7---8---10~--------------------------------||
A||---7---8---7/1---8---7---7---8---10~--------------------------------||

B||--------------------------------------------------------------------||
F#|--10-11-10--------------------------------------------------------||
D||---9-10---9--------------------------------------------------------||
A||---7---8---7---7/1----7---------------------------------------------||
E||---7---8---7---7/1------11-11---------------------------------------||
A||---7---8---7---7/1------------15---15b------------------------------||

B||--------------------------------------------------------------------||
F#|--10-11-10/4-11-10-10-11---13~--------------------------------||
D||---9-10---9/3-10---9---9-10---12~--------------------------------||
A||---7---8---7/1---8---7---7---8---10~--------------------------------||
E||---7---8---7/1---8---7---7---8---10~--------------------------------||
A||---7---8---7/1---8---7---7---8---10~--------------------------------||

B||--------------------------------------------------------------------||
F#|--10-11-10--------------------------------------------------------||
D||---9-10---9--------------------------------------------------------||
A||---7---8---7---7/1----7---------------------------------------------||
E||---7---8---7---7/1------11-11---------------------------------------||
A||---7---8---7---7/1------------15---15b------------------------------||


Riff F

[Karl & Dallas]

B||--------------------------------------------------------------------||
F#|--------------------------------------------------------------------||
D||--------------------------------------------------------------------||
A||--------------------------------------------------------------------||
E||--------------------------------------------------------------------||
A||---2-2-2-2-2---6-6-6---3-3-3-3-3---2-2-2-2-2---6-6-6---3-3-3-3-3----||

B||--------------------------------------------------------------------||
F#|--------------------------------------------------------------------||
D||---------------9*---------------------------------------------------||
A||---4h3---0-0----9*--------------------------------------------------||
E||---4h3---0-0--------------------------------------------------------||
A||---4h3---0-0--------------------------------------------------------||
PM          _ _
B||--------------------------------------------------------------------||
F#|--------------------------------------------------------------------||
D||--------------------------------------------------------------------||
A||--------------------------------------------------------------------||
E||--------------------------------------------------------------------||
A||---2-2-2-2-2---6-6-6---3-3-3-3-3---2-2-2-2-2---6-6-6---3-3-3-3-3----||

B||-------------------------------------------------------------------||
F#|-------------------------------------------------------------------||
D||---------------9*--------------------------------------------------||
A||---4h3---0-0----9*-------------------------------------------------||
E||---4h3---0-0-------------------------------------------------------||
A||---4h3---0-0-------------------------------------------------------||
PM          _ _

Riff G

[Karl & Dallas]

B||-------------------------------------------------------------------||
F#|--10-11-10/4-11-10-10-11---13~-------------------------------||
D||---9-10---9/3-10---9---9-10---12~-------------------------------||
A||---7---8---7/1---8---7---7---8---10~-------------------------------||
E||---7---8---7/1---8---7---7---8---10~-------------------------------||
A||---7---8---7/1---8---7---7---8---10~-------------------------------||

B||-------------------------------------------------------------------||
F#|--10-11-10-------------------------------------------------------||
D||---9-10---9-------------------------------------------------------||
A||---7---8---7---7/1----7--------------------------------------------||
E||---7---8---7---7/1------11-11--------------------------------------||
A||---7---8---7---7/1------------15---15b-----------------------------||

B||-------------------------------------------------------------------||
F#|--10-11-10/4-11-10-10-11---13~-------------------------------||
D||---9-10---9/3-10---9---9-10---12~-------------------------------||
A||---7---8---7/1---8---7---7---8---10~-------------------------------||
E||---7---8---7/1---8---7---7---8---10~-------------------------------||
A||---7---8---7/1---8---7---7---8---10~-------------------------------||

B||-------------------|-----------------------------------------------||
F#|--10-11-10-------|-----------------------------------------------||
D||---9-10---9-------|-----------------------------------------------||
A||---7---8---7---7/1-|--0-3-2-1-3-2--???????-------------------------||
E||---7---8---7---7/1-|--0-3-2-1-3-2--???????-------------------------||
A||---7---8---7---7/1-|--0-3-2-1-3-2--???????-------------------------||
PM                       _ _ _ _
B||-------------------------------------------------------------------||
F#|-------------------------------------------------------------------||
D||-------------------------------------------------------------------||
A||--0-3-2-1-3-2--???????---------------------------------------------||
E||--0-3-2-1-3-2--???????---------------------------------------------||
A||--0-3-2-1-3-2--???????---------------------------------------------||
PM   _ _ _ _
B||-------------------------------------------------------------------||
F#|-------------------------------------------------------------------||
D||-------------------------------------------------------------------||
A||--0-3-2-1-3-2--???????---------------------------------------------||
E||--0-3-2-1-3-2--???????---------------------------------------------||
A||--0-3-2-1-3-2--???????---------------------------------------------||
PM   _ _ _ _
B||-------------------------------------------------------------------||
F#|-------------------------------------------------------------------||
D||-------------------------------------------------------------------||
A||--0-3-2-1-3-2--???????---------------------------------------------||
E||--0-3-2-1-3-2--???????---------------------------------------------||
A||--0-3-2-1-3-2--???????---------------------------------------------||
PM   _ _ _ _
B||-------------------------------------------------------------------||
F#|-------------------------------------------------------------------||
D||-------------------------------------------------------------------||
A||--0-3-2-1-3-2--???????---------------------------------------------||
E||--0-3-2-1-3-2--???????---------------------------------------------||
A||--0-3-2-1-3-2--???????---------------------------------------------||
PM   _ _ _ _
Riff H

[Karl & Dallas]

B||-------------------------------------------------------------------||
F#|--10---11--------------10----9--------6----5-----------------------||
D||---9---10---------------9----8--------5----4-----------------------||
A||---7----8----0-0-0-0----7----6---0----3----2-----------------------||
E||---7----8----0-0-0-0----7----6---0----3----2-----------------------||
A||---7----8----0-0-0-0----7----6---0----3----2-----------------------||
PM              _ _ _ _             _

B||-------------------------------------------------------------------||
F#|-------------------------------------------------------------------||
D||---9---10----------------------------------------------------------||
A||---7----8----0-0-0-0-0-0-0-0-0-0-0---------------------------------||
E||---7----8----0-0-0-0-0-0-0-0-0-0-0---------------------------------||
A||---7----8----0-0-0-0-0-0-0-0-0-0-0---------------------------------||
PM              _ _ _ _ _ _ _ _ _ _ _

B||-------------------------------------------------------------------||
F#|--10---11--------------10----9--------6----5-----------------------||
D||---9---10---------------9----8--------5----4-----------------------||
A||---7----8----0-0-0-0----7----6---0----3----2-----------------------||
E||---7----8----0-0-0-0----7----6---0----3----2-----------------------||
A||---7----8----0-0-0-0----7----6---0----3----2-----------------------||
PM              _ _ _ _             _

B||-------------------------------------------------------------------||
F#|-------------------------------------------------------------------||
D||---9---10----------------------------------------------------------||
A||---7----8----0-0-0-0-0-0-0-0-0-0-0---------------------------------||
E||---7----8----0-0-0-0-0-0-0-0-0-0-0---------------------------------||
A||---7----8----0-0-0-0-0-0-0-0-0-0-0---------------------------------||
PM              _ _ _ _ _ _ _ _ _ _ _


B||-------------------------------------------------------------------||
F#|-------------------------------------------------------------------||
D||-------------------------------------------------------------------||
A||--0-3-2-1-3-2--???????---------------------------------------------||
E||--0-3-2-1-3-2--???????---------------------------------------------||
A||--0-3-2-1-3-2--???????---------------------------------------------||
PM   _ _ _ _
B||-------------------------------------------------------------------||
F#|-------------------------------------------------------------------||
D||-------------------------------------------------------------------||
A||--0-3-2-1-3-2--???????---------------------------------------------||
E||--0-3-2-1-3-2--???????---------------------------------------------||
A||--0-3-2-1-3-2--???????---------------------------------------------||
PM   _ _ _ _
B||-------------------------------------------------------------------||
F#|-------------------------------------------------------------------||
D||-------------------------------------------------------------------||
A||--0-3-2-1-3-2--???????---------------------------------------------||
E||--0-3-2-1-3-2--???????---------------------------------------------||
A||--0-3-2-1-3-2--???????---------------------------------------------||
PM   _ _ _ _
B||-------------------------------------------------------------------||
F#|-------------------------------------------------------------------||
D||-------------------------------------------------------------------||
A||--0-3-2-1-3-2--???????---------------------------------------------||
E||--0-3-2-1-3-2--???????---------------------------------------------||
A||--0-3-2-1-3-2--???????---------------------------------------------||
PM   _ _ _ _


Please Rate For Sound & Effort Please,
Keep It Metal!
Related for Annihilation Of The Wicked tab