Song name
# A B C D E F G H I J K L M N O P Q R S T U V W X Y Z

Nils Lofgren - Keith Dont Go Acoustic tab

Keith don΄t go (acustic) - Nils Lofgren

(EASY VERSION)  ;)

-Intro:

e|---------------------------------------------------------------|
b|---------------------------------------------------------------|
g|-----------------2------------------------------------2--------|
D|-------0h2-----------------------0-2---------0h2---------------|
A|---0h2-------1p0---0--------0h2----------0h2------1p0---0------|
E|-0--------------------3-0--------------0-------------------3-0-|


e|-------------0-------------------------------------------------|
b|------------------------5--5--7--8----8---10--7--0-------------|
g|------------------------5--6--8--9----9---11--7--9-------------|
D|-------0-2--------------5--7--9--9----10--12--7--9-------------|
A|--0h2------------x/0-------------------------------------------|
E|-----------------x/0-------------------------------------------|

e|---------------------------------------------------------------|
b|--5--5--7--8-----10--8---0---------x-------------------------0-|
g|--5--6--8--9-----11--9---9---------x-------------------------4-|
D|--5--7--9--9-----12--10--9---------x-----------------0-------2-|
A|-------------------------------x---------------0-2-------------|
E|-------------------------------x--------12/--------0---0-0-----|

e|----------0---0---0--------------------------0-----------0-----|
b|----------0---0---0--------------------0-----0---0---0---------|
g|---------------------------------------4-----------------------|
D|----------5---7---9------------0-------2-----5---4---0---2-----|
A|------------------------0h2------------------------------------|
E|-----0------------------0----0---0--0--------0---0-------0-----|

e|--------------0--0--0----------------------------------0-----------|
b|----------0---------------------------------------0-------0--0--x/-|
g|----------4---0--4--0h2---2p0---------------------4-------------x/-|
D|-------0--2------------------2p0----------0-------2----5--4--2--x/-|
A|-0h2-------------------------------0h2-----------------------------|
E|-----0-----------------------------0----0----0--0------------------|

    Em7  D/E   Em     D/E        Em
e|---------------------------------------------------|
b|---7----7----8-------7---------8-------------------|
g|---8----7----9-------7----7----9-------------------|
D|---9----7----9-------7----7----9-------------------|
A|---------------------------------------------------|
E|---------------------------------------------------| (x4)//(verses x5)
 Em7 Asus4 A  Asus4 A      Em D/E Em  D5  B
e|----------------------------------------------------|
b|-8--3--2----3--3--2-------8--7--8----3-----------4--|
g|-7--2--2----2--2--2-------7--7--9----2--4-----------|
D|-9--2--2----2--2--2-------9--7--9-------4--4--------|
A|----------------------------------------2-----2-----|
E|----------------------------------------------------| (pre-chorus)
    G   A
e|--------------------------------------------------|
b|--------------------------------------------------|
g|--7--/9-------------------------------------------|
D|--5--/7-------------------------------------------|
A|--------------------------------------------------|
E|--------------------------------------------------| (chorus)


This is a right away letter, I've got to mail it today
Straight to my main inspirer, says urgent from the USA
                             Em7 Asus4  A  Asus4  A
Its got this heart inside it, the postage is my soul
Em    D/E    Em    D5          B  G  A
Contains a message from millions, says Keith don't go

- Em7 D/E Em D/E Em (x2)

10.000 guitars wailin', but it ain't quite the same
You've got a knack for sailin, and it's stamped with your own brand name
We's all sailors, as captain you must know
You bring a message to millions, says Keith don't go

e|--0-----0--3----0—-0--0--0—---3--0--0--0—---0----------|
b|--3--5—-5--5----5—-5—-5--5—---5--0--3--0—---3--0--2----|
g|--2--4—-4--4----4--4--4--4----4—-4--4--4—---2--0--2--0-|
D|-----------------------------------------------------0-|
A|-------------------------------------------------------|
E|-------------------------------------------------------|

   C          Cadd9
I said Keith don't go, don't take my fun
e|----0--------------------0-------------------------0----0--2--0-----------------|
b|-1-----1-------3---------------3-----------------0-----0--------3--0------0-----|
g|-0-----0—-0-------0----------------------------4-----4------------------4-------|
D|-2-----2-------------2-------------2—-0------4------------------------4---------|
A|-3-----3-----3--------------3--------------2------------------------------------|
E|------------------------------------------------------------------------------0-|

Em7 D/E Em D/E Em    Em7 D/E Em D/E Em
 Keith don't go,      Keith don't go

-Puente:
e|----------7------------------------------------------------|
b|-8—8---10-8---8-8---7--------5-5--7-8-7-8----5-5--10-7-----|
g|-9-9---11-9---9-9---7-7-9----5-6--8-9-8-9----5-6--11-8—9---|
D|-9—10--12-----9-10--7-7-9----5-7--9-9-9-9----5-7--12-9-9---|
A|-----------------------------------------------------------|
E|-----------------------------------------------------------|

e|--------------------10-12-10-------7-5-3--------10-12-10-12—-10-5-5/7-|
b|-5-5--7-10-8-7-8----10-12-10-10-----------------10-12-10—12—-10-------|
g|-5-6--8-11-9-8-9----11-12-11-------9-7-5--9-----11-12-11—12--11—7-7/9-|
D|-5-7--9-12-9-9-9-------------12-----------9---------------------------|
A|----------------------------------------------------------------------|
E|----------------------------------------------------------------------|


-Solo with harmonics


We miss our father Jimi, it's hard to breathe with that loss
But I still got you brother, don't nail yourself to a cross
I watch you lead the pack, you put the drive into my soul
You bring a message to millions, says Keith don't go

   C          Cadd9
I said Keith don't go, don't take my fun
Em7 D/E Em D/E Em    Em7 D/E Em D/E Em
 Keith don't go,      Keith don't go


Thanks! Sorry for mistakes!

santino_@hotmail.es
Tap to rate this tab
# A B C D E F G H I J K L M N O P Q R S T U V W X Y Z