Guitaretab - guitar tabs
Song name
# A B C D E F G H I J K L M N O P Q R S T U V W X Y Z

Nimp-froid - Puluto tab

------------------------------------------------------------
			     Poluto - nimp-froid
------------------------------------------------------------

By:Gregson,Woods and Fartbum?
[ Tab from: http://www.guitaretab.com/n/nimp-froid/29164.html ]
e|-----------------------------------------------------|
B|-----------------------------------------------------|
G|-----------------------------------------------------|*2
D|--597-77--5979--99-----------------------------------|
A|--597-77--5979--99-----------------------------------|
E|--375-55--3757--77-----------------------------------|

e|-----------------------------------------------------|
B|-----------------------------------------------------|
G|-----------------------------------------------------|*2
D|-------55---------99---------77----------------------|
A|-----------3----------7----------5---5-0-------------|
E|---55---------99---------77--------------------------|


This is my first tab and i made it up whilst i was on my comp (pritty cool for a nimp).
I would also like to say hi to Dane and fartbum.Good night!!!!!!!!!
Related for Puluto tab
Advertisement will be closed in 10 seconds