Song name
# A B C D E F G H I J K L M N O P Q R S T U V W X Y Z

Nimp-froid - Dont Have A Clue tab

Help us improve GuitareTab! Take a short survey!
------------------------------------------------------------
               Dont have a clue? - Nimp-froid
------------------------------------------------------------
By:Greg


    Em                     G
e|-------------------------------------------------|
B|-------------------------------------------------|
G|--------0-------0-0------------0-------0-0-------|*2
D|------2-------2-----2--------0-------0-----0-----|
A|----2-------2---------2----2-------2---------2---|
E|--0-------0--------------3-------3---------------|

This tab is the tits hope you all enjoy it!
Related for Dont Have A Clue tab