Song name
# A B C D E F G H I J K L M N O P Q R S T U V W X Y Z

Nina Attal - What A Dirty Night tab

Nina Attal - What a Dirty Night

Tab by Jacques Moch

Tab is based on this acoustic live performance https://www.youtube.com/watch?v=Vwmmf1vd_Es
Check out the rhythm yourself ... something shuffle-like should work.

[Chords used in Intro and Verse]        

    Fm7     Db7/13    Gm7b5   Calt.
e|---8----|--------|--------|-------|
B|---9----|---11---|---11---|---9---|
G|---8----|---10---|---10---|---9---|
D|---10---|---9----|---11---|---8---|
A|---8----|--------|---10---|-------|
E|--------|---9----|--------|---8---|

[Intro]

||: Fm7 Db7/13 |  Gm7b5 Calt.  :||

[Verse 1]

||: Fm7 Db7/13 |  Gm7b5 Calt.  :||
Hey, what a dirty beautiful night
I can see so far away
A special night without any fight
In New York city
Oh, people walking down the street
No one looking in misery
And nothing can hurt me here
In a peaceful city 

[Interlude]

    Fm7       Db7/9        Gm6#5  Calt.  
e||-----------------------|----------4-4---||
B||----1----------4-------|---4------4-4---||
G||o---1----------4-------|---3------3-3--o|| (2 Times)
D||o---1----------3-------|---2-----------o||
A||----------6-4----------|--------3-------||
E||--1----/4----------4-2-|-3----3---------||

[Verse 2]

||: Fm7 Db7/13 |  Gm7b5 Calt.  :||
My deepest hopes becoming so clear
But its just a simple dream
How can I stop my fears
In a scary movie 

[Interlude]

    Fm7       Db7/9        Gm6#5  Calt.  
e||-----------------------|----------4-4---||
B||----1----------4-------|---4------4-4---||
G||----1----------4-------|---3------3-3---|| (1 Time)
D||----1----------3-------|---2------------||
A||----------6-4----------|--------3-------||
E||--1-----4----------4-2-|-3----3---------||

(continue Interlude Riff!)
Reality makes me ashamed
I dont understand what it is 
Everybody feels the same
In a big city

[Intro Chords]
|| Fm7 Db7/13 |  Gm7b5 Calt.  || (1 Time)

[Bridge]

    Dbmaj7   Calt.    B         Bb7/9/13  A
e||--------|-------|------------|---8---|---------------|
B||---9----|---9---|--6--6-8-6--|---8---|--4--4-4--4-6--|
G||---10---|---9---|--7--7-7-7--|---7---|--5--5-5--5-5--|
D||---10---|---8---|--6--6-6-6--|---6---|--4--4-4--4-4--|
A||--------|-------|------------|-------|---------------|
E||---9----|---8---|--7---------|---6---|--5--5-5--5-5--|

    Db7/13       B           Calt.
e|------------------------|----------------------------||
B|--11-11-11-11--6-6-6-6--|---9-9-9-9-9-9-9-9-9-9\-----||
G|--10-10-10-10--7-7-7-7--|---9-9-9-9-9-9-9-9-9-9\-----||
D|--9--9--9--9---6-6-6-6--|---8-8-8-8-8-8-8-8-8-8\-----||
A|------------------------|----------------------------||
E|--9--9--9--9---7-7-7-7--|---8-8-8-8-8-8-8-8-8-8\-----||

          Dbmaj7           Calt.
I hear a voice
                   B      Bb7/9/13
Bringing back memories
                      A
The town where I was born 
Db7/13   B       Calt.
    Was full of love

[Interlude]

    Fm7       Db7/9        Gm6#5  Calt.  
e||-----------------------|----------4-4---||
B||----1----------4-------|---4------4-4---||
G||o---1----------4-------|---3------3-3--o|| (2 Times)
D||o---1----------3-------|---2-----------o||
A||----------6-4----------|--------3-------||
E||--1-----4----------4-2-|-3----3---------||

(continue Interlude Riff!)
Reality makes me ashamed
I dont understand what it is 
Everybody feels the same
In a big city

[Outro Riff]

     Fm7(no 5)                  Gm7b5      Calt.
e||---------------------------|---------------------||
B||----9--9-9/11----9--9-9/11-|-9/11-11-11-9-9-9-9--||
G||o---8--8-8/10----8--8-8/10-|-8/10-10-10-9-9-9-9-o|| (4 Times)
D||o--------------------------|-9/11-10-10-8-8-8-8-o||
A||--8----8-8/10--8----8-8/10-|-8/10-10-10----------||
E||---------------------------|------------8-8-8-8--||

     Fm7                        Gm6#5     Calt.
e||---------------------------|-----------4---4-----||
B||----1--1-1/3-----1--1-1/3--|-3/4--4-4--4---4-----||
G||o---1--1-1/3-----1--1-1/3--|-2/3--3-3--3---3----o|| (8 Times)
D||o---1--1-1/3-----1--1-1/3--|-1/2--2-2--2---2----o||
A||---------------------------|-----------3---3-----||
E||--1----1-1/3---1----1-1/3--|-2/3--3-3------------||

(ad lib)
What a dirty night
What a dirty night
In a scary movie, in
a big city, in a dark city

                               E  Fm7
e||-------------------------------------------||
B||--11/13-11-X-11-9-----------8---1-1-1-1-1--||
G||o---------------------------6---1-1-1-1-1--|| 
D||o--8/10--8-X--8-6--6--------8---1-1-1-1-1--||
A||---------------------8-6----7--------------||
E||-------------------------8------1-1-1-1-1--||


Any comments or corrections to jacques.moch@gmx.net

http://www.ninaattal.com/
Tap to rate this tab
# A B C D E F G H I J K L M N O P Q R S T U V W X Y Z