Guitaretab - guitar tabs
Song name
# A B C D E F G H I J K L M N O P Q R S T U V W X Y Z

Nina Nastasia - Stormy Weather tab

-------------------------------------------------------------------------------
			     STORMY WEATHER - The Kooks
-------------------------------------------------------------------------------
Tabbed by: Nannarč

Tuning: standars

chords used:
  G#m E C#m  B
e|-4--7--9---7---------------------------------------------------------------|
B|-4--9--9---7---------------------------------------------------------------|
G|-4--9--9---8---------------------------------------------------------------|
D|-6--9--11--9---------------------------------------------------------------|
A|-6--7--11--9---------------------------------------------------------------|
E|-4--x--9---7---------------------------------------------------------------|

(00:08-)
e|--x-x-x-x-16-16-16-16----x-x-x-x-21-21-21-21/0----------|
B|--x-x-x-x-16-16-16-16----x-x-x-x-21-21-21-21/0----------|
G|--x-x-x-x-16-16-16-16----x-x-x-x-21-21-21-21/0----------|
D|--------------------------------------------------------|
A|--------------------------------------------------------|
E|--------------------------------------------------------|
intro: G#m E C#m

verse:
G#m         E             C#m
You sail a stormy weather
from my window
You ain't, yeah, you ain't so clever
You got it all made up
[ Tab from: http://www.guitaretab.com/n/nina-nastasia/142622.html ]
e|-------------------------------------------------------------------|
B|-------------------------------------------------------------------|
G|----------------------------------------------------9--9--9--9-----|
D|--6-6-6-6---9-9-9-9--11-11-11-11--6-6-6-6--9-9-9-9--11-11-11-11----|
A|--6-6-6-6---7-7-7-7--11-11-11-11--6-6-6-6--7-7-7-7--11-11-11-11----|
E|-------------------------------------------------------------------|
But it feels like love, love, love  Oh yes, it feels like touch, touch, touch

verse:
I sit around to pass the time
I try to get it off my mind
And I live in a world oh so small
That I can't get around at all

        G#m        B           E
And it feels like love, love, love
Oh yes, it feels like touch, touch, touch

B
What did I say?
C#m          G#m
What did I say?
C#m          G#m
What did I say?
E                C#m
Oh, I didn't mean it

B
What did I do
C#m          G#m
Or take of you?
E
Oh, I didn't mean it
C#m
Oh, oh, I didn't mean it!

guitar solo: G#m E C#m
e|---------------------------------------------------------------9------11----|
B|-------------------------------------------------------12(14)--12(14)-14(16-|
G|----------------------------------------------------13----------------------|
D|-13-13-13-13-13-13-14----13-11/6-----13----13----13-------------------------|
A|----------------------14----------11----11----11----------------------------|
E|----------------------------------------------------------------------------|

the rest of the song is the same as the tabbed!

thanks!
Related for Stormy Weather tab