Song name
# A B C D E F G H I J K L M N O P Q R S T U V W X Y Z

Nina Nastasia - Dear Rose tab

-------------------------------------------------------------------------------
			     Nina Nastasia - Dear Rose
-------------------------------------------------------------------------------
Tabbed by: Ben Hurst
Email: BHurst8@gmail.com

From the album "Dogs".

Nina Nastasia's rather undeveloped website:
http://www.southern.com/southern/band/NASTA/

Tuning: Standard

Fingerpicked

  A                                 Amaj7
e|-0-------0-------2-------0-------|-0-------0-------2-------0-------|
B|---2-------2-------2-------2-----|---2-------2-------2-------2-----|
G|-----2-2-----2-2-----2-2-----2-2-|-----1-1-----1-1-----1-1-----1-1-|
D|---------------------------------|---------------------------------|
A|---------------------------------|---------------------------------|
E|---------------------------------|---------------------------------|

  A7                                Bm
e|-0-------0-------2-------0-------|---------------------------------|
B|---2-------2-------2-------2-----|-3-------3-------3(5)----3-------|
G|-----0-0-----0-0-----0-0-----0-0-|---4-------4-------4-------4-----|
D|---------------------------------|-----4-4-----4-4-----4-4-----4-4-|
A|---------------------------------|---------------------------------|
E|---------------------------------|---------------------------------|

  Bdim                                  A
e|---------------------------------|---------------------------------|
B|-3-------3-------3(5)----3-------|-2-------2-------2-------2-------|
G|---4-------4-------4-------4-----|---2-------2-------2-------2-----|
D|-----3-3-----3-3-----3-3-----3-3-|-----2-2-----2-2-----2-2-----2-2-|
A|---------------------------------|---------------------------------|
E|---------------------------------|---------------------------------|

  E
e|---------------------------------|
B|-0-------0-------0-------0-------|
G|---1-------1-------1-------1-----|
D|-----2-2-----2-2-----2-2-----2-2-|
A|---------------------------------|
E|---------------------------------|

This whole pattern repeats and the song finishes on an A. The notes in parentheses are 
instead of the preceding note the second time around.


| /  slide up
|   slide down
| h  hammer-on
| p  pull-off
| ~  vibrato
| +  harmonic
| x  Mute note
===============================================================================
Tap to rate this tab
# A B C D E F G H I J K L M N O P Q R S T U V W X Y Z