Guitaretab - guitar tabs
Song name
# A B C D E F G H I J K L M N O P Q R S T U V W X Y Z

Nina - Anything For You tab

Tabbed by. Jenkin Demano
Song: Anything for you By. Nina
Enjoy Playing thisÖÖ.

Clean Gutar (Standard Tuning)


Intro:

e|----------9---------------------------------------------------------------|
¨b|----------------9-----------7-----6-----------4-----7-7-----------7-7----|
g|---------------------------------------------------------------6----------|
d|--------------------------------------------------------------------------|
a|--------------------------------------------------------------------------|
e|----------9-----------------7-----------------7----------------6----------|

e|------------------2---------4-------------------------------------------|
b|----------------------------4-------------------------------------------|
g|----------4-------------------------------------------------------------|
d|------------------------------------------------------------------------|
a|----------------------------4-------------------------------------------|
e|----------4-------------------------------------------------------------|


F#                         C#
Anything for you  though youíre not here
F#                                C#m
Since you said weíre through  it seems like years
              B                        C#
Time keeps dragging on and on  and foreverís been and gone


e|----------------------------------------------------------|
b|------------------4---------------------------------------|
g|-------------------------------------------4--------------|
d|----------------------------------------------------------|
a|------------------2---------------------------------------|
e|-------------------------------------------4--------------|
Still I canít  figure    what    went   wrong

e|--6\7---6--4--2--1------------------------------|
b|------------------------------------------------|
g|--8\9---8--6--4--3------------------------------|


             F#                             C#
Iíd still do anything for you  I'll play your game
    F#                                        C#m
You hurt me through and through  but you can have your way
         B                                     C#
I can pretend each time I see you  that I donít care and I donít need you
         B                C#
And though youíll never see me cryin,

e|----------------------------------------------------------|
b|------------------4---------------------------------------|
g|-------------------------------------------4--------------|
d|----------------------------------------------------------|
a|------------------2---------------------------------------|
e|-------------------------------------------4--------------|
you know inside I feel like dying
[ Tab from: http://www.guitaretab.com/n/nina/159975.html ]
e|--6\7---6--4--2--1------------------------------|
b|------------------------------------------------|
g|--8\9---8--6--4--3------------------------------|


           F#                    C#
And Iíd do anything for you  in spite of it all
     F#                             C#m      F#
I;ve learned so much from you  You made me strong
               B                                        C#
Donít you ever think that I donít love you that for one minute I forgot you
              B                                        C#m          F#
But sometimes things donít work out right  and you just have to say goodbye
           B                                        C#
I hope you find someone to please you someone wholl care and never leave you
            B                   C#
But if that someone ever hurts you
          B                    C#
you just might need a friend to turn to

e|--6\7---6--4--2--1------------------------------|
b|------------------------------------------------|
g|--8\9---8--6--4--3------------------------------|

           F#                   C#
And Iíd do anything for you  Ill give you up
   F#                           C#m      F#
If thatís what I should do  to make you happy
         B                                     C#
I can pretend each time I see you  that I donít care and I donít need you
             B                                      C#m               F#
And though inside I feel like dying  you know youíll never see me cryin?
               B                                        C#              Donít you ever 
that I donít love you  that for one minute I forgot you
              B                                        C#m            F#
But sometimes things donít work out right  and you just have to say goodbyeÖ


AND THEN THE ďSOLOĒ PART COMES..

OUTRO:
e|------9----------------------------------------------------------------|
b|------------9--------------7-----6------------4-----7-7-----------7-7--|
g|---------------------------------------------------------------6-------|
d|-----------------------------------------------------------------------|
a|-----------------------------------------------------------------------|
e|------9--------------------7------------------7----------------6-------|
 And Iíd do anythingfor you


e|------------------2---------------------2-----------------------|
b|----------------------------------------2-----------------------|
g|----------4-----------------------------3-----------------------|
d|----------------------------------------4-----------------------|
a|----------------------------------------4-----------------------|
e|----------4-----------------------------2-----------------------|


     hOpe yOu enjoy iT GuyS!.. eWan Q knG tama unG CHorDs Q!.. pEro sHure sa iNtro  HEhheheheÖ
Related for Anything For You tab