Song name
# A B C D E F G H I J K L M N O P Q R S T U V W X Y Z

Nina - 99 Red Balloons tab

99 red balloons- Nina

| /  slide up
| \  slide down
| h  hammer-on
| p  pull-off
| ~  vibrato
| +  harmonic
| x  Mute note


Intro- E F#m A B 
You and I in a little toy shop, buy a bag of balloons with the money we’ve got
Set them free at the break of dawn, till one by one they were gone
Back at base, faxing the software, flash the message something’s out there
Floating in the summer sky, 99 red balloons go by…

G|-----------------------------|
D|-2-2---2------2-2---2--------|
A|-----4---4--------2---2------|
E|------------------------0----| x 4

G|---------------H--------------------------------|
D|-2-2---2------4-6-4-2---2-2---2-----------------|
A|-----4---4------------------4---4--2-2-2---2-4--|
E|------------------------------------------------| x 4

    X  X  X X
Vs- E F#m A B
  X - Mute Notes 

  E
e|--------------------------|
B|--------------------------|
G|--------------------------|
D|--------------------------|
A|--2--2--2--2--2--2--2--2--|
E|--0--0--0--0--0--0--0--0--|

99 
Panic bell, its *
The war machine **
Focusing in ***

F#m
e|--------------------------|
B|--------------------------|
G|--------------------------|
D|--------------------------|
A|--4--4--4--4--4--4--4--4--|
E|--2--2--2--2--2--2--2--2--|
red balloons
red alert there's *
springs to life, **
on the sky, ***

A
e|--------------------------|
B|--------------------------|
G|--------------------------|
D|--2--2--2--2--2--2--2--2--|
A|--0--0--0--0--0--0--0--0--|
E|--------------------------|
floating in the
something here from *
opens up one’s **
99 ***

B
e|-------------------------|
B|-------------------------|
G|-------------------------|
D|--4--4--4--4--4--4--4--4-|
A|--2--2--2--2--2--2--2--2-|
E|-------------------------|
summer sky
somewhere else *
eager eyes **
red balloons go by ***

vs2
99 decisions free, 99 may misters me
To worry worry super surrey, call the troops out in a hurry
This is what we’ve waited for, this is it boys this war
The president is on the line, cause 99 red balloons go by ~intro bass & drums~ 2x4

vs3
99 lights up the air, with super high tech jet fighters
Everyone’s a superhero, everyone’s with captain Kirk
With orders to identify, to clarify and classify 
There’s a tremble in the summer’s sky, 99 red balloons go by ~rhythm with keyboard~ x 4 

99 red balloons go by… ~music dies~

~quiet~
99 dreams I have heard, and everyone a red balloon
It’s all over and I’m standing pretty, in this dusted worldless city
If I can find a souvenir, just to prove the world was here
And here is a red balloon, I’ll think of you and let it go ~fade out~





Tap to rate this tab
 
# A B C D E F G H I J K L M N O P Q R S T U V W X Y Z