Song name
# A B C D E F G H I J K L M N O P Q R S T U V W X Y Z

Nina - I Love You Goodbye tab


“I Love You Goodbye”
Acoustic cover by Nina
Tabbed by: Rey Ramos
Guitar Tab Video: http://www.youtube.com/watch?v=6lJcgbN_roU
Guitar Tuning: Standard Tuning( E A D G B e)
Date: Sept. 28, 2012

Description: This is actually made for educational and compilation purposes
for comments or questions just comment it in the video i posted above.Its a very 
friendly tab with chords and lyrics indicated.


Intro:

  Bm         A        E          A/Bb    Bm         A           E
|-------------------------------------0------------------------------(12)---|
|-3-----2h3--2-----2--0------------------3-----2h3--2--3s5-3-2--0----(12)---|
|-----4----------2---------------------------4------------------------------|
|---4----------2--------------------2------4--------------------------------|
|-2----------0--------------------1------2----------0-----------------------|
|------------------------0(hold)--------------------------------0-----------|

Stanza I:

    A      A/G#    F#m    A/E    DM7       E
|---------------------------------2--------0------------------------------|
|---2------------5------2------2-------2---0------------------------------|
|-------4---4-------2------2---------2---------1--------------------------|
|-----2-------2-------4------2----0------------2------------------=-------|
|---0---------------------------------------------------------------------|
|-----------4-------2------0---------------0---0--------------------------|

Stanza II:

    A       A/G#   F#m      F#m    Esus        A/C#
|-------------------------------------------0----------------------------|
|---2-------------------2----------------0------2------------------------|
|-------4----4------2------2-----2---2----------2------------------------|
|-----2--------2------4--------4-----2-----------------------------------|
|---0-------------------------------------------4------------------------|
|------------4------2--------2-------0-----------------------------------|

Refrain:

  DM7     A/C#     Bm7       A Bm7 C#m
|------------------------------------------------------------------------|
|--7--------------5-3--------2--3--5-------------------------------------|
|------6--------2--------2-----------------------------------------------|
|----7--------2--------4-------------------------------------------------|
|--5-------4--------2--------0--2--4-------------------------------------|
|------------------------------------------------------------------------|

  DM7     A/C#      Bm7      E/F#  E
|-------------------------------------------------------------------|
|--7-------5--------3-----------5-----5-----------------------------|
|------6-------2---------2------------------------------------------|
|----7-------2---------4------4----2--------------------------------|
|--5-------4--------2-----------------------------------------------|
|-------------------------------------------------------------------|

 DM7       F#m E   F#m E   DM7
|---------------------------5------------------|
|-7--------10--9----10-9----7------------------|
|-----6----11--9----11-9----6------------------|
|---7-----------------------7------------------|
|-5--------9---7----9--7----5------------------|
|----------------------------------------------|

  Bm         A/C#       Dsus2
|----------------------------------------------|
|--------2-3--------2---------5----------------|
|------4----------2---2---7--------------------|
|----4----------2---------7--------------------|
|--2----------4-----------5--------------------|
|----------------------------------------------|




   Bm   A     DM7    Esus      Asus2      A/Bb
|--10----------5------------------------0--0-----------------------------|
|--------------7------------5-------0------------------------------------|
|-------9------6------7---7-----------6----------------------------------|
|--9----7------7------7-7---------7--------------------------------------|
|--------------5---------------------------------------------------------|
|---------------------0---------5----------6-----------------------------|

Interlude: (last part of intro)

   Bm          A            E
|---------------------------------(12)----------------------------------|
|--3-----2h3---2--3s5--3-2--0-----(12)----------------------------------|
|------4----------------------------------------------------------------|
|----4------------------------------------------------------------------|
|--2-----------0--------------------------------------------------------|
|---------------------------0-------------------------------------------|


Repeat Stanza I and II
Repeat Refrain except last part


Esus          Asus2                     E(hold) D(hold)  E(hold) D(hold)
             ↓ ↓ ↓ ↓ ↓  ↓ ↑ ↓ ↑
|------------0-0-0-0-0--0-0-0-0---------0-------2--------0--------2------|
|--------5---0-0-0-0-0--0-0-0-0--T------0-------3--------0--------3------|
|--7---7-----2-2-2-2-2--2-2-2-2--A------1-------2--------1--------2------|
|--7-7-------2-2-2-2-2--2-2-2-2--P------2-------0--------2--------0------|
|------------0-0-0-0-0--0-0-0-0---------2----------------2---------------|
|--0------------------------------------0----------------0---------------|

   C#7       F#m          DM7      E
            ↓ ↓ ↓ ↓ ↓
|---4-------2-2-2-2-2--------------------------|
|---6-------2-2-2-2-2------7-------5-----------|
|---4-------2-2-2-2-2----------6-----4---------|
|---6-------4-4-4-4-4--------7-----------------|
|---4-------4-4-4-4-4------5-------------------|
|-----------2-2-2-2-2--------------0-----------|

  Bm         A/C#       Dsus2
|----------------------------------------------|
|--------2-3--------2---------5----------------|
|------4----------2---2---7--------------------|
|----4----------2---------7--------------------|
|--2----------4-----------5--------------------|
|----------------------------------------------|

    Bm     A    DM7   Esus      Asus2
|---10-----------5------------------------0------------------------|
|----------------7-----5-------------0---------0-------------------|
|----------9-----6----------7-----------6------6-------------------|
|---9------7-----7--------7--------7--------7----------------------|
|----------------5-------------------------------------------------|
|----------------------0---------5---------------------------------|

 Bm       A/C#       Dsus2          Bm  A  DM7 Esus   Asus2(hold)
|------------------------------0----10------5---------5-----0-----------|
|-3-----3------2----------3----3------------7---5-------5---0-----------|
|-----4------2----------2---2--2--------9---6-------7-------2-----------|
|---4-------------2---0--------0----9---7---7-----7---------2-----------|
|-2--------4--------------------------------5---------------0-----------|
|-----------------------------------------------0-----------------------|


“I Love You Goodbye”
Acoustic cover by Nina



I.
Wish I could be the one
The one who could give you love
The kind of love you really need
Wish I could say to you
That I'll always stay with you
But baby that's not me

Refrain I:
You need someone
Willing to give their heart and soul to you
Promise you forever
But baby that's something I can't do

Oh, I could say that I'll be all you need
But that would be a lie
I know I'd only hurt you, I know I'd only make you cry
I'm not the one you're needing, I love you goodbye

II
I hope someday you can
Find some way to understand
I'm only doing this for you
I don't really wanna go
But deep in my heart, I know
This is the kindest thing to do

Refrin II:
You’ll need someone
Who'll be the one that I could never be
Who’ll give you something better
Than the love you find with me
Oh I could say that I'll be all you need
But that would be a crime
I know I'd only hurt you, I know I'd only make you cry
I'm not the one you're needing, I love you goodbye

Bridge:
Leaving someone, when you love someone
Is the hardest thing to do
when you love someone as much as I love you,
oh, I don't wanna leave you
Baby, it tears me up inside but I'll never be the one
You're needing, I love you goodbye

Outro:
Baby, It's never gonna work out
I love you goodbye
Tap to rate this tab
# A B C D E F G H I J K L M N O P Q R S T U V W X Y Z