Song name
# A B C D E F G H I J K L M N O P Q R S T U V W X Y Z

Nina - Throught The Fire tab

-----------------------------------------------------------------------------
		         through the fire by nina from the album nina live
-----------------------------------------------------------------------------
Tabbed by:jc
Email:jczapata_21@yahoo.com


i have seen already a tab of this, but my version sounds almost exactly..
i have done the intro as a hint, do the rest guys...peace..ok to accurate to
guys believe me, pls rate this intro..


 Tuning:Capo 1st Fret

e|--2---3--2---3---3---3---3---t--3------2---3----2--3----0----0--------------|
B|--3---3--3---3---2---3---2---a--3------3---3----3--3----3----1--------------|
G|--0------0---0-----------0---p-------------------------------2--------------|
D|-------------------------------------------------------------1--------------|
A|--------------------------------0------3--------3-------3-------------------|
E|--3----------------------3--------------------------------------------------|

e|--2---3--2---3---3---3---3---t--3------2---3----2--3----0----0--------------|
B|--3---3--3---3---2---3---2---a--3------3---3----3--3----3----1--------------|
G|--0------0---0-----------0---p-------------------------------2--------------|
D|-------------------------------------------------------------0--------------|
A|--------------------------------0------3--------3-------3-------------------|
E|--3----------------------3--------------------------------------------------|

jc rules...:-)
Tap to rate this tab
 
# A B C D E F G H I J K L M N O P Q R S T U V W X Y Z