Song name
# A B C D E F G H I J K L M N O P Q R S T U V W X Y Z

Nine Black Alps - Unsatisfied tab

Standard Tuning: EADGBE

This is just the basic into tune for the song should only take a minute to learn.

e-------------------------------------------------------------------------|
B-17-17-17-17-17-17-17-17-17-17-17-17-18-18-18-18-------------------------|
G------------------------------------------------19-19-19-19-19-19-19-19--|
D-------------------------------------------------------------------------|
A-------------------------------------------------------------------------|
E-------------------------------------------------------------------------|

e-------------------------------------------------------------------------|
B-17-17-17-17-----------20-20-20-20-20-20-20-20-18-18-18-18-18-18-18-18---|
G------------19-19-19-19-----------------------------------------------19-|
D-------------------------------------------------------------------------|
A-------------------------------------------------------------------------|
E-------------------------------------------------------------------------|

e-------------------------------------------------------------------------|
B---------------------17-17-17-17-----------------------------------------|
G-19-19-19-19-19-19-19-----------19-19-19-19------------------------------|
D-------------------------------------------------------------------------|
A-------------------------------------------------------------------------|
E-------------------------------------------------------------------------|

Repeat this troughout the song for the basic riff.
Tap to rate this tab
 
# A B C D E F G H I J K L M N O P Q R S T U V W X Y Z