Song name
# A B C D E F G H I J K L M N O P Q R S T U V W X Y Z

Nine Black Alps - Intermission tab

---------------------------------------------------------------------------
			     Intermission - Sixx: AM
---------------------------------------------------------------------------
Tabbed by:  SGstriker

Tuning:  Drop D*

*I believe they used Drop D for the song, but I'm not entirely sure.  You could have it 
standard and still play the solo.


Solo starts at approximately 1:25 in the song.
T = 110-120.  3/4 Time Sig.
Distorted Guitar w/ Neck Pickup and Wah

   Q      H         Q      H        H       (E)      S   S     H.
e|-------/15----|---------/15---|--13bh15---(15)--15r13p11--|-13---------|
B|--------------|---------------|---------------------------|------------|
G|--------------|---------------|---------------------------|------------|
D|-10-----------|---10----------|---------------------------|------------|
A|--------------|---------------|---------------------------|------------|
E|--------------|---------------|---------------------------|------------|

    Q Q  Q   Q  Q  Q Q  Q  Q   Q    H        Q     H
e|----------|-------|--------|-----/15---|--------/15--|
B|----------|-------|--------|-----------|-------------|
G|--13\12\8/|10/12\8|10/12/13|-----------|-------------|
D|----------|-------|--------|-10--------|---10--------|
A|----------|-------|--------|-----------|-------------|
E|----------|-------|--------|-----------|-------------|

   Q     Q     (E)      S   S      H.         Q  Q  Q   Q Q  Q  Q  Q  Q
e|-----/13b15--(15)--15r13p11--|--13------|----------|--------|-----------|
B|-----------------------------|----------|----------|--------|-----------|
G|-----------------------------|----------|--13\12\8/|10/12\8/|10/12/13---|
D|-10--------------------------|----------|----------|--------|-----------|
A|-----------------------------|----------|----------|--------|-----------|
E|-----------------------------|----------|----------|--------|-----------|


   (H)
e|-------------|
B|-------------|
G|-(13)\-------|
D|-------------|
A|-------------|
E|-------------|

LEGEND
H = Half Note
Q = Quarter Note
E = Eighth Note
H. = Dotted Half Note
/ = Slide Up
\ = Slide Down
b = bend
bh = bend and hold
r = release bend
p = pull off
()= Ghost note (or in the case of this, a tied note)
Tap to rate this tab
 
# A B C D E F G H I J K L M N O P Q R S T U V W X Y Z