Song name
# A B C D E F G H I J K L M N O P Q R S T U V W X Y Z

Nine Black Alps - Bay Of Angels tab

-------------------------- Nine Black Alps ----------------------------------|
-------------------------- Bay of Angels ------------------------------------|

Tabbed By: Dięgo Palmeira

Intro/Verse:

E|-----------------------------|
A|-----------------------------|
D|-9----9-----9-----9----------|
G|-----------------------------|
B|-0----0-----0-----0----------|
E|-0----0-----0-----0----------|

E|-----------------------------|
A|-----------------------------|
D|-----------------------------|
G|-9----9-----9-----9----------|
B|-8----8-----8-----8----------|
E|-0----0-----0-----0----------|


Chorus:

 Em             G           D
It's all I can do just to stay here
 Em               G            D
And bring myself back down to earth
 Em             G            D   Bm
If ever you're lost on your way here
 C                     D             Bm
You'll see me, with a view from the top of the world

The top of the world
E|-----------------------------|
A|-----------------------------|
D|-9----9-----9-----9----------|
G|-----------------------------|
B|-0----0-----0-----0----------|
E|-0----0-----0-----0----------|

The top of the world
E|-----------------------------|
A|-----------------------------|
D|-----------------------------|
G|-9----9-----9-----9----------|
B|-8----8-----8-----8----------|
E|-0----0-----0-----0----------| (2x)

G, D   F#m, E    C, B     E <-- (Play this 'E'only when you go to the solo)
      ooooh,    ooooohhhh



Solo:

E|-----------------------------|
A|-----------------------------|
D|-10-----10----10-----9-------|
G|-----------------------------|
B|-7------7-----7--------------|
E|-----------------------------|

E|-----------------------------|
A|-----------------------------|
D|-9-----9-----9--------9------|
G|-----------------------------|
B|-8-----8-----8---------------|
E|-----------------------------|

E|-----------------------------|
A|-----------------------------|
D|-10-----10----10-----9-------|
G|-----------------------------|
B|-7------7-----7--------------|
E|-----------------------------|

E|-----------------------------|
A|-----------------------------|
D|-9-----9-----9-------10------|
G|-----------------------------|
B|-8-----8-----8-------8-------|
E|-----------------------------|

E|------------------------------------|
A|------------------------------------|
D|------------------------------------|
G|------------------------------------|
B|-10-12-13-13-12-10-8-10-12-13-17-18-|
E|------------------------------------|


For the end, play:

E|-------5---------------------|
A|-------7-------------7-------|
D|-------7-------------9-------|
G|-------6-------------9-------|
B|-------5-------------8-------|
E|-------5-------------7-------|

End with:
E|-----------------------------|
A|-------7---------------------|
D|-------9---------------------|
G|-------9---------------------|
B|-------8---------------------|
E|-------7---------------------|
Tap to rate this tab
 
# A B C D E F G H I J K L M N O P Q R S T U V W X Y Z